  0
SECTION
  2
HEADER
  9
$ACADVER
  1
AC1027
  9
$ACADMAINTVER
 70
     8
  9
$DWGCODEPAGE
  3
ANSI_1252
  9
$REQUIREDVERSIONS
160
                 0
  9
$LASTSAVEDBY
  1
loik
  9
$INSBASE
 10
0.0
 20
0.0
 30
0.0
  9
$EXTMIN
 10
-0.0632281147469342
 20
72.91499999999999
 30
0.0
  9
$EXTMAX
 10
549.9108798561235
 20
450.0
 30
0.0
  9
$LIMMIN
 10
0.0
 20
0.0
  9
$LIMMAX
 10
550.0
 20
450.0
  9
$ORTHOMODE
 70
     0
  9
$REGENMODE
 70
     1
  9
$FILLMODE
 70
     1
  9
$QTEXTMODE
 70
     0
  9
$MIRRTEXT
 70
     0
  9
$LTSCALE
 40
1.0
  9
$ATTMODE
 70
     1
  9
$TEXTSIZE
 40
0.2
  9
$TRACEWID
 40
0.05
  9
$TEXTSTYLE
  7
Standard
  9
$CLAYER
  8
0
  9
$CELTYPE
  6
ByLayer
  9
$CECOLOR
 62
   256
  9
$CELTSCALE
 40
1.0
  9
$DISPSILH
 70
     0
  9
$DIMSCALE
 40
1.0
  9
$DIMASZ
 40
0.18
  9
$DIMEXO
 40
0.0625
  9
$DIMDLI
 40
0.38
  9
$DIMRND
 40
0.0
  9
$DIMDLE
 40
0.0
  9
$DIMEXE
 40
0.18
  9
$DIMTP
 40
0.0
  9
$DIMTM
 40
0.0
  9
$DIMTXT
 40
0.18
  9
$DIMCEN
 40
0.09
  9
$DIMTSZ
 40
0.0
  9
$DIMTOL
 70
     0
  9
$DIMLIM
 70
     0
  9
$DIMTIH
 70
     1
  9
$DIMTOH
 70
     1
  9
$DIMSE1
 70
     0
  9
$DIMSE2
 70
     0
  9
$DIMTAD
 70
     0
  9
$DIMZIN
 70
     0
  9
$DIMBLK
  1

  9
$DIMASO
 70
     1
  9
$DIMSHO
 70
     1
  9
$DIMPOST
  1

  9
$DIMAPOST
  1

  9
$DIMALT
 70
     0
  9
$DIMALTD
 70
     2
  9
$DIMALTF
 40
25.4
  9
$DIMLFAC
 40
1.0
  9
$DIMTOFL
 70
     0
  9
$DIMTVP
 40
0.0
  9
$DIMTIX
 70
     0
  9
$DIMSOXD
 70
     0
  9
$DIMSAH
 70
     0
  9
$DIMBLK1
  1

  9
$DIMBLK2
  1

  9
$DIMSTYLE
  2
Standard
  9
$DIMCLRD
 70
     0
  9
$DIMCLRE
 70
     0
  9
$DIMCLRT
 70
     0
  9
$DIMTFAC
 40
1.0
  9
$DIMGAP
 40
0.09
  9
$DIMJUST
 70
     0
  9
$DIMSD1
 70
     0
  9
$DIMSD2
 70
     0
  9
$DIMTOLJ
 70
     1
  9
$DIMTZIN
 70
     0
  9
$DIMALTZ
 70
     0
  9
$DIMALTTZ
 70
     0
  9
$DIMUPT
 70
     0
  9
$DIMDEC
 70
     4
  9
$DIMTDEC
 70
     4
  9
$DIMALTU
 70
     2
  9
$DIMALTTD
 70
     2
  9
$DIMTXSTY
  7
Standard
  9
$DIMAUNIT
 70
     0
  9
$DIMADEC
 70
     0
  9
$DIMALTRND
 40
0.0
  9
$DIMAZIN
 70
     0
  9
$DIMDSEP
 70
    46
  9
$DIMATFIT
 70
     3
  9
$DIMFRAC
 70
     0
  9
$DIMLDRBLK
  1

  9
$DIMLUNIT
 70
     2
  9
$DIMLWD
 70
    -2
  9
$DIMLWE
 70
    -2
  9
$DIMTMOVE
 70
     0
  9
$DIMFXL
 40
1.0
  9
$DIMFXLON
 70
     0
  9
$DIMJOGANG
 40
0.7853981633974483
  9
$DIMTFILL
 70
     0
  9
$DIMTFILLCLR
 70
     0
  9
$DIMARCSYM
 70
     0
  9
$DIMLTYPE
  6

  9
$DIMLTEX1
  6

  9
$DIMLTEX2
  6

  9
$DIMTXTDIRECTION
 70
     0
  9
$LUNITS
 70
     2
  9
$LUPREC
 70
     1
  9
$SKETCHINC
 40
0.1
  9
$FILLETRAD
 40
0.0
  9
$AUNITS
 70
     0
  9
$AUPREC
 70
     0
  9
$MENU
  1
.
  9
$ELEVATION
 40
0.0
  9
$PELEVATION
 40
0.0
  9
$THICKNESS
 40
0.0
  9
$LIMCHECK
 70
     0
  9
$CHAMFERA
 40
0.0
  9
$CHAMFERB
 40
0.0
  9
$CHAMFERC
 40
0.0
  9
$CHAMFERD
 40
0.0
  9
$SKPOLY
 70
     0
  9
$TDCREATE
 40
2452643.105050937
  9
$TDUCREATE
 40
2452643.063384271
  9
$TDUPDATE
 40
2457782.41347632
  9
$TDUUPDATE
 40
2457782.371809653
  9
$TDINDWG
 40
0.2671086111
  9
$TDUSRTIMER
 40
2457782.371550787
  9
$USRTIMER
 70
     1
  9
$ANGBASE
 50
0.0
  9
$ANGDIR
 70
     0
  9
$PDMODE
 70
     0
  9
$PDSIZE
 40
0.0
  9
$PLINEWID
 40
0.0
  9
$SPLFRAME
 70
     0
  9
$SPLINETYPE
 70
     6
  9
$SPLINESEGS
 70
     8
  9
$HANDSEED
  5
AAF
  9
$SURFTAB1
 70
     6
  9
$SURFTAB2
 70
     6
  9
$SURFTYPE
 70
     6
  9
$SURFU
 70
     6
  9
$SURFV
 70
     6
  9
$UCSBASE
  2

  9
$UCSNAME
  2

  9
$UCSORG
 10
0.0
 20
0.0
 30
0.0
  9
$UCSXDIR
 10
1.0
 20
0.0
 30
0.0
  9
$UCSYDIR
 10
0.0
 20
1.0
 30
0.0
  9
$UCSORTHOREF
  2

  9
$UCSORTHOVIEW
 70
     0
  9
$UCSORGTOP
 10
0.0
 20
0.0
 30
0.0
  9
$UCSORGBOTTOM
 10
0.0
 20
0.0
 30
0.0
  9
$UCSORGLEFT
 10
0.0
 20
0.0
 30
0.0
  9
$UCSORGRIGHT
 10
0.0
 20
0.0
 30
0.0
  9
$UCSORGFRONT
 10
0.0
 20
0.0
 30
0.0
  9
$UCSORGBACK
 10
0.0
 20
0.0
 30
0.0
  9
$PUCSBASE
  2

  9
$PUCSNAME
  2

  9
$PUCSORG
 10
0.0
 20
0.0
 30
0.0
  9
$PUCSXDIR
 10
1.0
 20
0.0
 30
0.0
  9
$PUCSYDIR
 10
0.0
 20
1.0
 30
0.0
  9
$PUCSORTHOREF
  2

  9
$PUCSORTHOVIEW
 70
     0
  9
$PUCSORGTOP
 10
0.0
 20
0.0
 30
0.0
  9
$PUCSORGBOTTOM
 10
0.0
 20
0.0
 30
0.0
  9
$PUCSORGLEFT
 10
0.0
 20
0.0
 30
0.0
  9
$PUCSORGRIGHT
 10
0.0
 20
0.0
 30
0.0
  9
$PUCSORGFRONT
 10
0.0
 20
0.0
 30
0.0
  9
$PUCSORGBACK
 10
0.0
 20
0.0
 30
0.0
  9
$USERI1
 70
     0
  9
$USERI2
 70
     0
  9
$USERI3
 70
     0
  9
$USERI4
 70
     0
  9
$USERI5
 70
     0
  9
$USERR1
 40
0.0
  9
$USERR2
 40
0.0
  9
$USERR3
 40
0.0
  9
$USERR4
 40
0.0
  9
$USERR5
 40
0.0
  9
$WORLDVIEW
 70
     1
  9
$SHADEDGE
 70
     3
  9
$SHADEDIF
 70
    70
  9
$TILEMODE
 70
     1
  9
$MAXACTVP
 70
    64
  9
$PINSBASE
 10
0.0
 20
0.0
 30
0.0
  9
$PLIMCHECK
 70
     0
  9
$PEXTMIN
 10
0.0
 20
0.0
 30
0.0
  9
$PEXTMAX
 10
0.0
 20
0.0
 30
0.0
  9
$PLIMMIN
 10
0.0
 20
0.0
  9
$PLIMMAX
 10
0.0
 20
0.0
  9
$UNITMODE
 70
     0
  9
$VISRETAIN
 70
     1
  9
$PLINEGEN
 70
     0
  9
$PSLTSCALE
 70
     1
  9
$TREEDEPTH
 70
  3020
  9
$CMLSTYLE
  2
Standard
  9
$CMLJUST
 70
     0
  9
$CMLSCALE
 40
1.0
  9
$PROXYGRAPHICS
 70
     1
  9
$MEASUREMENT
 70
     0
  9
$CELWEIGHT
370
    -1
  9
$ENDCAPS
280
     0
  9
$JOINSTYLE
280
     0
  9
$LWDISPLAY
290
     0
  9
$INSUNITS
 70
     4
  9
$HYPERLINKBASE
  1

  9
$STYLESHEET
  1

  9
$XEDIT
290
     1
  9
$CEPSNTYPE
380
     0
  9
$PSTYLEMODE
290
     1
  9
$FINGERPRINTGUID
  2
{FDEAD576-A652-11D2-9A35-0060089B3A3F}
  9
$VERSIONGUID
  2
{FBC2AE19-5C5C-49EC-81BC-71B1A3362A02}
  9
$EXTNAMES
290
     1
  9
$PSVPSCALE
 40
0.0
  9
$OLESTARTUP
290
     0
  9
$SORTENTS
280
   127
  9
$INDEXCTL
280
     0
  9
$HIDETEXT
280
     1
  9
$XCLIPFRAME
280
     0
  9
$HALOGAP
280
     0
  9
$OBSCOLOR
 70
   257
  9
$OBSLTYPE
280
     0
  9
$INTERSECTIONDISPLAY
280
     0
  9
$INTERSECTIONCOLOR
 70
   257
  9
$DIMASSOC
280
     2
  9
$PROJECTNAME
  1

  9
$CAMERADISPLAY
290
     0
  9
$LENSLENGTH
 40
50.0
  9
$CAMERAHEIGHT
 40
0.0
  9
$STEPSPERSEC
 40
2.0
  9
$STEPSIZE
 40
6.0
  9
$3DDWFPREC
 40
2.0
  9
$PSOLWIDTH
 40
0.25
  9
$PSOLHEIGHT
 40
4.0
  9
$LOFTANG1
 40
1.570796326794897
  9
$LOFTANG2
 40
1.570796326794897
  9
$LOFTMAG1
 40
0.0
  9
$LOFTMAG2
 40
0.0
  9
$LOFTPARAM
 70
     7
  9
$LOFTNORMALS
280
     1
  9
$LATITUDE
 40
37.795
  9
$LONGITUDE
 40
-122.394
  9
$NORTHDIRECTION
 40
0.0
  9
$TIMEZONE
 70
 -8000
  9
$LIGHTGLYPHDISPLAY
280
     1
  9
$TILEMODELIGHTSYNCH
280
     1
  9
$CMATERIAL
347
96
  9
$SOLIDHIST
280
     1
  9
$SHOWHIST
280
     1
  9
$DWFFRAME
280
     2
  9
$DGNFRAME
280
     0
  9
$REALWORLDSCALE
290
     1
  9
$INTERFERECOLOR
 62
     1
  9
$CSHADOW
280
     0
  9
$SHADOWPLANELOCATION
 40
0.0
  0
ENDSEC
  0
SECTION
  2
CLASSES
  0
CLASS
  1
ACDBDICTIONARYWDFLT
  2
AcDbDictionaryWithDefault
  3
ObjectDBX Classes
 90
        0
 91
        9
280
     0
281
     0
  0
CLASS
  1
ACDBPLACEHOLDER
  2
AcDbPlaceHolder
  3
ObjectDBX Classes
 90
        0
 91
        1
280
     0
281
     0
  0
CLASS
  1
LAYOUT
  2
AcDbLayout
  3
ObjectDBX Classes
 90
        0
 91
        1
280
     0
281
     0
  0
CLASS
  1
DICTIONARYVAR
  2
AcDbDictionaryVar
  3
ObjectDBX Classes
 90
        0
 91
        6
280
     0
281
     0
  0
CLASS
  1
TABLESTYLE
  2
AcDbTableStyle
  3
ObjectDBX Classes
 90
     4095
 91
        9
280
     0
281
     0
  0
CLASS
  1
MATERIAL
  2
AcDbMaterial
  3
ObjectDBX Classes
 90
     1153
 91
        9
280
     0
281
     0
  0
CLASS
  1
VISUALSTYLE
  2
AcDbVisualStyle
  3
ObjectDBX Classes
 90
     4095
 91
        9
280
     0
281
     0
  0
CLASS
  1
SCALE
  2
AcDbScale
  3
ObjectDBX Classes
 90
     1153
 91
        9
280
     0
281
     0
  0
CLASS
  1
CELLSTYLEMAP
  2
AcDbCellStyleMap
  3
ObjectDBX Classes
 90
     1152
 91
        6
280
     0
281
     0
  0
CLASS
  1
RASTERVARIABLES
  2
AcDbRasterVariables
  3
ISM
 90
        0
 91
        9
280
     0
281
     0
  0
CLASS
  1
SUN
  2
AcDbSun
  3
SCENEOE
 90
     1153
 91
        9
280
     0
281
     0
  0
CLASS
  1
DIMASSOC
  2
AcDbDimAssoc
  3
"AcDbDimAssoc|Product Desc:     AcDim ARX App For Dimension|Company:          Autodesk, Inc.|WEB Address:      www.autodesk.com"
 90
        0
 91
        5
280
     0
281
     0
  0
ENDSEC
  0
SECTION
  2
TABLES
  0
TABLE
  2
VPORT
  5
8
330
0
100
AcDbSymbolTable
 70
     1
  0
VPORT
  5
94
330
8
100
AcDbSymbolTableRecord
100
AcDbViewportTableRecord
  2
*Active
 70
     0
 10
0.0
 20
0.0
 11
1.0
 21
1.0
 12
139.5236747322257
 22
176.8232749577311
 13
0.0
 23
0.0
 14
6.0
 24
6.0
 15
6.0
 25
6.0
 16
0.0
 26
0.0
 36
1.0
 17
-27.66959356598079
 27
-19.53870295786191
 37
0.0
 40
610.9398701222977
 41
2.02289156626506
 42
50.0
 43
0.0
 44
0.0
 50
0.0
 51
0.0
 71
    16
 72
  1000
 73
     1
 74
     3
 75
     1
 76
     1
 77
     0
 78
     0
281
     0
 65
     1
110
0.0
120
0.0
130
0.0
111
1.0
121
0.0
131
0.0
112
0.0
122
1.0
132
0.0
 79
     0
146
0.0
348
9F
 60
     2
 61
     5
292
     1
282
     1
141
0.0
142
0.0
 63
   250
421
  3355443
361
ED
  0
ENDTAB
  0
TABLE
  2
LTYPE
  5
5
330
0
100
AcDbSymbolTable
 70
     1
  0
LTYPE
  5
14
330
5
100
AcDbSymbolTableRecord
100
AcDbLinetypeTableRecord
  2
ByBlock
 70
     0
  3

 72
    65
 73
     0
 40
0.0
  0
LTYPE
  5
15
330
5
100
AcDbSymbolTableRecord
100
AcDbLinetypeTableRecord
  2
ByLayer
 70
     0
  3

 72
    65
 73
     0
 40
0.0
  0
LTYPE
  5
16
330
5
100
AcDbSymbolTableRecord
100
AcDbLinetypeTableRecord
  2
Continuous
 70
     0
  3
Solid line
 72
    65
 73
     0
 40
0.0
  0
ENDTAB
  0
TABLE
  2
LAYER
  5
2
330
0
100
AcDbSymbolTable
 70
     2
  0
LAYER
  5
10
330
2
100
AcDbSymbolTableRecord
100
AcDbLayerTableRecord
  2
0
 70
     0
 62
     7
  6
Continuous
370
    -3
390
F
347
98
348
0
  0
LAYER
  5
129
330
2
100
AcDbSymbolTableRecord
100
AcDbLayerTableRecord
  2
Defpoints
 70
     0
 62
     7
  6
Continuous
290
     0
370
    -3
390
F
347
98
348
0
  0
ENDTAB
  0
TABLE
  2
STYLE
  5
3
330
0
100
AcDbSymbolTable
 70
     1
  0
STYLE
  5
11
330
3
100
AcDbSymbolTableRecord
100
AcDbTextStyleTableRecord
  2
Standard
 70
     0
 40
10.0
 41
1.0
 50
0.0
 71
     0
 42
0.2
  3
arial.ttf
  4

1001
ACAD
1000
Arial
1071
        0
  0
ENDTAB
  0
TABLE
  2
VIEW
  5
6
330
0
100
AcDbSymbolTable
 70
     0
  0
ENDTAB
  0
TABLE
  2
UCS
  5
7
330
0
100
AcDbSymbolTable
 70
     0
  0
ENDTAB
  0
TABLE
  2
APPID
  5
9
330
0
100
AcDbSymbolTable
 70
     1
  0
APPID
  5
12
330
9
100
AcDbSymbolTableRecord
100
AcDbRegAppTableRecord
  2
ACAD
 70
     0
  0
ENDTAB
  0
TABLE
  2
DIMSTYLE
  5
A
330
0
100
AcDbSymbolTable
 70
     2
100
AcDbDimStyleTable
  0
DIMSTYLE
105
27
330
A
100
AcDbSymbolTableRecord
100
AcDbDimStyleTableRecord
  2
Standard
 70
     0
178
     0
340
11
  0
DIMSTYLE
105
812
330
A
100
AcDbSymbolTableRecord
100
AcDbDimStyleTableRecord
  2
ISO-25
 70
     0
 41
2.5
 42
0.625
 43
3.75
 44
1.25
 73
     0
 74
     0
 77
     1
 78
     8
140
2.5
141
2.5
143
0.03937007874016
147
0.625
171
     3
172
     1
178
     0
271
     2
272
     2
274
     3
283
     0
284
     8
340
11
  0
ENDTAB
  0
TABLE
  2
BLOCK_RECORD
  5
1
330
0
100
AcDbSymbolTable
 70
    18
  0
BLOCK_RECORD
  5
1F
330
1
100
AcDbSymbolTableRecord
100
AcDbBlockTableRecord
  2
*Model_Space
340
22
 70
     0
280
     1
281
     0
  0
BLOCK_RECORD
  5
58
330
1
100
AcDbSymbolTableRecord
100
AcDbBlockTableRecord
  2
*Paper_Space
340
59
 70
     0
280
     1
281
     0
  0
BLOCK_RECORD
  5
5D
330
1
100
AcDbSymbolTableRecord
100
AcDbBlockTableRecord
  2
*Paper_Space0
340
5E
 70
     0
280
     1
281
     0
  0
ENDTAB
  0
ENDSEC
  0
SECTION
  2
BLOCKS
  0
BLOCK
  5
20
330
1F
100
AcDbEntity
  8
0
100
AcDbBlockBegin
  2
*Model_Space
 70
     0
 10
0.0
 20
0.0
 30
0.0
  3
*Model_Space
  1
*Model_Space
  0
ENDBLK
  5
21
330
1F
100
AcDbEntity
  8
0
100
AcDbBlockEnd
  0
BLOCK
  5
5A
330
58
100
AcDbEntity
 67
     1
  8
0
100
AcDbBlockBegin
  2
*Paper_Space
 70
     0
 10
0.0
 20
0.0
 30
0.0
  3
*Paper_Space
  1
*Paper_Space
  0
ENDBLK
  5
5B
330
58
100
AcDbEntity
 67
     1
  8
0
100
AcDbBlockEnd
  0
BLOCK
  5
5F
330
5D
100
AcDbEntity
  8
0
100
AcDbBlockBegin
  2
*Paper_Space0
 70
     0
 10
0.0
 20
0.0
 30
0.0
  3
*Paper_Space0
  1
*Paper_Space0
  0
ENDBLK
  5
60
330
5D
100
AcDbEntity
  8
0
100
AcDbBlockEnd
  0
ENDSEC
  0
SECTION
  2
ENTITIES
  0
LWPOLYLINE
  5
2C7
330
1F
100
AcDbEntity
  8
0
100
AcDbPolyline
 90
        5
 70
     0
 43
0.0
 10
6.020718588640278
 20
258.0109093651458
 10
24.02071858864028
 20
258.0109093651458
 10
24.02071858864028
 20
252.0109093651458
 10
6.020718588640278
 20
252.0109093651458
 10
6.020718588640278
 20
258.0109093651458
  0
LWPOLYLINE
  5
2C9
330
1F
100
AcDbEntity
  8
0
100
AcDbPolyline
 90
        5
 70
     0
 43
0.0
 10
335.9705313145473
 20
257.9403658279132
 10
354.0
 20
257.9403658279132
 10
354.0
 20
251.9403658279132
 10
335.9705313145473
 20
251.9403658279132
 10
335.9705313145473
 20
257.9403658279132
  0
LWPOLYLINE
  5
635
330
1F
100
AcDbEntity
  8
0
100
AcDbPolyline
 90
        4
 70
     0
 43
0.0
 10
114.0
 20
282.0
 10
114.0
 20
276.0
 10
120.0
 20
276.0
 10
120.0
 20
282.0
  0
LWPOLYLINE
  5
636
330
1F
100
AcDbEntity
  8
0
100
AcDbPolyline
 90
        4
 70
     0
 43
0.0
 10
240.0
 20
282.0
 10
240.0
 20
276.0
 10
246.0
 20
276.0
 10
246.0
 20
282.0
  0
LWPOLYLINE
  5
68D
330
1F
100
AcDbEntity
  8
0
100
AcDbPolyline
 90
       49
 70
     0
 43
0.0
 10
0.0
 20
264.0
 10
24.01066237038462
 20
264.0469593479331
 10
23.99554416458698
 20
282.0
 10
48.01066237038462
 20
282.0
 10
48.01066237038462
 20
252.0
 10
60.0
 20
252.0
 10
60.0
 20
282.0
 10
90.0
 20
282.0
 10
90.0
 20
252.0
 10
102.0
 20
252.0
 10
102.0106623703846
 20
282.0
 10
114.0
 20
282.0
 10
114.0
 20
276.0
 10
120.0
 20
276.0
 10
120.0
 20
282.0
 10
132.0106623703846
 20
282.0
 10
132.0106623703846
 20
252.0
 10
144.0106623703846
 20
252.0469593479331
 10
144.0106623703846
 20
282.0
 10
174.0
 20
282.0
 10
174.0
 20
252.0
 10
186.0106623703846
 20
252.0469593479331
 10
186.0106623703846
 20
282.0
 10
216.0
 20
282.0
 10
216.0
 20
252.0
 10
228.0
 20
252.0
 10
228.0106623703846
 20
282.0
 10
240.0
 20
282.0
 10
240.0
 20
276.0
 10
246.0
 20
276.0
 10
246.0
 20
282.0
 10
258.0
 20
282.0
 10
258.0106623703846
 20
252.0469593479331
 10
270.0
 20
252.0469593479331
 10
270.0106623703846
 20
282.0
 10
300.0
 20
282.0
 10
300.0
 20
252.0
 10
312.0
 20
252.0
 10
312.0106623703846
 20
282.0
 10
336.0
 20
282.0
 10
336.0
 20
264.0
 10
360.0106623703846
 20
264.0
 10
360.0106623703846
 20
246.0721705417037
 10
336.0
 20
246.0721705417037
 10
336.0
 20
228.0
 10
24.0
 20
228.0
 10
24.0
 20
246.0
 10
0.0
 20
246.0
 10
0.0
 20
264.0
  0
LWPOLYLINE
  5
808
330
1F
100
AcDbEntity
  8
0
100
AcDbPolyline
 90
       12
 70
     0
 43
0.0
 10
24.0
 20
228.0
 10
0.0
 20
228.0
 10
0.0
 20
204.0
 10
288.0
 20
204.0
 10
288.0
 20
210.0
 10
300.0
 20
210.0
 10
300.0
 20
216.0
 10
324.0
 20
216.0
 10
324.0
 20
222.0
 10
360.0
 20
222.0
 10
360.0
 20
228.0
 10
336.0
 20
228.0
  0
LINE
  5
809
330
1F
100
AcDbEntity
  8
0
100
AcDbLine
 10
0.0
 20
222.0
 30
0.0
 11
324.0
 21
222.0
 31
0.0
  0
LINE
  5
80A
330
1F
100
AcDbEntity
  8
0
100
AcDbLine
 10
0.0
 20
216.0
 30
0.0
 11
300.0
 21
216.0
 31
0.0
  0
LINE
  5
80B
330
1F
100
AcDbEntity
  8
0
100
AcDbLine
 10
0.0
 20
210.0
 30
0.0
 11
288.0
 21
210.0
 31
0.0
  0
LINE
  5
80C
330
1F
100
AcDbEntity
  8
0
100
AcDbLine
 10
132.0
 20
222.0
 30
0.0
 11
132.0
 21
216.0
 31
0.0
  0
LINE
  5
80D
330
1F
100
AcDbEntity
  8
0
100
AcDbLine
 10
228.0
 20
222.0
 30
0.0
 11
228.0
 21
216.0
 31
0.0
  0
LINE
  5
80E
330
1F
100
AcDbEntity
  8
0
100
AcDbLine
 10
150.0
 20
216.0
 30
0.0
 11
150.0
 21
210.0
 31
0.0
  0
LINE
  5
80F
330
1F
100
AcDbEntity
  8
0
100
AcDbLine
 10
120.0
 20
210.0
 30
0.0
 11
120.0
 21
204.0
 31
0.0
  0
LINE
  5
810
330
1F
100
AcDbEntity
  8
0
100
AcDbLine
 10
240.0
 20
210.0
 30
0.0
 11
240.0
 21
204.0
 31
0.0
  0
ARC
  5
8BA
102
{ACAD_REACTORS
330
A8F
102
}
330
1F
100
AcDbEntity
  8
0
100
AcDbCircle
 10
-2.012804316394707
 20
133.7493227872877
 30
0.0
 40
17.39471587358354
100
AcDbArc
 50
50.09226229443843
 51
82.96028430688169
  0
ARC
  5
8BB
102
{ACAD_REACTORS
330
A8F
102
}
330
1F
100
AcDbEntity
  8
0
100
AcDbCircle
 10
28.65643515774006
 20
147.5845796846546
 30
0.0
 40
5.853628959410287
100
AcDbArc
 50
90.09644312918176
 51
28.95233954218115
  0
ARC
  5
8BC
102
{ACAD_REACTORS
330
A8F
102
}
330
1F
100
AcDbEntity
  8
0
100
AcDbCircle
 10
28.648124309534
 20
147.8179596136056
 30
0.0
 40
2.973329258497285
100
AcDbArc
 50
91.48919214690463
 51
28.47407299788052
  0
LINE
  5
8BD
102
{ACAD_REACTORS
330
A8F
102
}
330
1F
100
AcDbEntity
  8
0
100
AcDbLine
 10
28.72132999552609
 20
153.363452396504
 30
0.0
 11
28.5708522993114
 21
150.7902846153295
 31
0.0
  0
LINE
  5
8BE
102
{ACAD_REACTORS
330
A8F
102
}
330
1F
100
AcDbEntity
  8
0
100
AcDbLine
 10
33.78892062423954
 20
150.4079302883769
 30
0.0
 11
31.26177867674021
 21
149.2355271528151
 31
0.0
  0
LINE
  5
8BF
330
1F
100
AcDbEntity
  8
0
100
AcDbLine
 10
31.93271555258801
 20
154.5839662022514
 30
0.0
 11
31.93271555258801
 21
154.5839662022514
 31
0.0
  0
ARC
  5
8C0
102
{ACAD_REACTORS
330
A8F
102
}
330
1F
100
AcDbEntity
  8
0
100
AcDbCircle
 10
27.69876987352846
 20
145.0296610617073
 30
0.0
 40
19.53148001103068
100
AcDbArc
 50
344.5983401966901
 51
37.96374316269787
  0
ARC
  5
8C1
102
{ACAD_REACTORS
330
A8F
102
}
330
1F
100
AcDbEntity
  8
0
100
AcDbCircle
 10
33.43350616791831
 20
146.0893106290665
 30
0.0
 40
17.06748748357752
100
AcDbArc
 50
337.4123563298533
 51
46.90373288711876
  0
ARC
  5
8C2
102
{ACAD_REACTORS
330
A8F
102
}
330
1F
100
AcDbEntity
  8
0
100
AcDbCircle
 10
44.25107075504859
 20
157.592861715438
 30
0.0
 40
1.27728469061581
100
AcDbArc
 50
48.6773049608757
 51
205.4144232239921
  0
ARC
  5
8C3
102
{ACAD_REACTORS
330
A8F
102
}
330
1F
100
AcDbEntity
  8
0
100
AcDbCircle
 10
47.87431597161121
 20
139.8088816722758
 30
0.0
 40
1.345903965690693
100
AcDbArc
 50
178.5724684120199
 51
348.2045078259211
  0
ARC
  5
8C4
102
{ACAD_REACTORS
330
A8F
102
}
330
1F
100
AcDbEntity
  8
0
100
AcDbCircle
 10
64.57159983743271
 20
11.43519532355372
 30
0.0
 40
153.7402663958793
100
AcDbArc
 50
84.95693301862698
 51
114.7859929785671
  0
ARC
  5
8C5
102
{ACAD_REACTORS
330
A8F
102
}
330
1F
100
AcDbEntity
  8
0
100
AcDbCircle
 10
-7.471942543985008
 20
-576.606512387554
 30
0.0
 40
746.1086320666171
100
AcDbArc
 50
77.87723873629923
 51
83.41527476928536
  0
ARC
  5
8C6
102
{ACAD_REACTORS
330
A8F
102
}
330
1F
100
AcDbEntity
  8
0
100
AcDbCircle
 10
140.4949174536998
 20
200.6423110225255
 30
0.0
 40
48.56792706232613
100
AcDbArc
 50
280.3444957576005
 51
325.9410440413071
  0
ARC
  5
8C7
102
{ACAD_REACTORS
330
A8F
102
}
330
1F
100
AcDbEntity
  8
0
100
AcDbCircle
 10
148.3014745233509
 20
176.5661772123959
 30
0.0
 40
32.58024436736653
100
AcDbArc
 50
299.1788160650929
 51
354.4974466265463
  0
ARC
  5
8C8
102
{ACAD_REACTORS
330
A8F
102
}
330
1F
100
AcDbEntity
  8
0
100
AcDbCircle
 10
69.2835712461543
 20
293.02903991147
 30
0.0
 40
161.6641291962559
100
AcDbArc
 50
244.6716350006612
 51
273.324023930131
  0
ARC
  5
8C9
102
{ACAD_REACTORS
330
A8F
102
}
330
1F
100
AcDbEntity
  8
0
100
AcDbCircle
 10
2.79211176657121
 20
813.042648618672
 30
0.0
 40
685.616018003006
100
AcDbArc
 50
276.3529343356366
 51
282.3829712216651
  0
ARC
  5
8CA
102
{ACAD_REACTORS
330
A8F
102
}
330
1F
100
AcDbEntity
  8
0
100
AcDbCircle
 10
4.99201376660686
 20
130.9204176760377
 30
0.0
 40
16.69720572271222
100
AcDbArc
 50
75.59152602635919
 51
106.7747012089777
  0
ARC
  5
8CB
102
{ACAD_REACTORS
330
A8F
102
}
330
1F
100
AcDbEntity
  8
0
100
AcDbCircle
 10
141.2134944878425
 20
98.16043635084364
 30
0.0
 40
46.02794906859216
100
AcDbArc
 50
33.06021297434654
 51
79.22433544421284
  0
ARC
  5
8CC
102
{ACAD_REACTORS
330
A8F
102
}
330
1F
100
AcDbEntity
  8
0
100
AcDbCircle
 10
147.0610057525429
 20
120.0434872316762
 30
0.0
 40
32.88702763480032
100
AcDbArc
 50
5.629601265863883
 51
58.62024302579481
  0
ARC
  5
93F
102
{ACAD_REACTORS
330
988
102
}
330
1F
100
AcDbEntity
  8
0
100
AcDbCircle
 10
37.5935108848192
 20
170.8090467777718
 30
0.0
 40
11.59647724905569
100
AcDbArc
 50
50.09226229443875
 51
82.96028430688212
  0
ARC
  5
940
102
{ACAD_REACTORS
330
988
102
}
330
1F
100
AcDbEntity
  8
0
100
AcDbCircle
 10
58.03967053424238
 20
180.0325513760164
 30
0.0
 40
3.902419306273525
100
AcDbArc
 50
90.09644312918176
 51
28.95233954218209
  0
ARC
  5
941
102
{ACAD_REACTORS
330
988
102
}
330
1F
100
AcDbEntity
  8
0
100
AcDbCircle
 10
58.03412996877158
 20
180.188137995317
 30
0.0
 40
1.982219505664857
100
AcDbArc
 50
91.48919214690463
 51
28.47407299788079
  0
LINE
  5
942
102
{ACAD_REACTORS
330
988
102
}
330
1F
100
AcDbEntity
  8
0
100
AcDbLine
 10
58.08293375943298
 20
183.8851331839159
 30
0.0
 11
57.98261529528979
 21
182.1696879964663
 31
0.0
  0
LINE
  5
943
102
{ACAD_REACTORS
330
988
102
}
330
1F
100
AcDbEntity
  8
0
100
AcDbLine
 10
61.46132751190855
 20
181.9147851118312
 30
0.0
 11
59.77656621357566
 21
181.1331830214567
 31
0.0
  0
LINE
  5
944
102
{ACAD_REACTORS
330
988
102
}
330
1F
100
AcDbEntity
  8
0
100
AcDbLine
 10
59.77656621357566
 20
181.1331830214567
 30
0.0
 11
59.77656621357566
 21
181.1331830214567
 31
0.0
  0
ARC
  5
945
102
{ACAD_REACTORS
330
988
102
}
330
1F
100
AcDbEntity
  8
0
100
AcDbCircle
 10
57.40122701143456
 20
178.3292722940515
 30
0.0
 40
13.02098667402045
100
AcDbArc
 50
344.5983401966903
 51
37.96374316269803
  0
ARC
  5
946
102
{ACAD_REACTORS
330
988
102
}
330
1F
100
AcDbEntity
  8
0
100
AcDbCircle
 10
61.22438454102785
 20
179.0357053389577
 30
0.0
 40
11.37832498905168
100
AcDbArc
 50
337.4123563298534
 51
46.90373288711907
  0
ARC
  5
947
102
{ACAD_REACTORS
330
988
102
}
330
1F
100
AcDbEntity
  8
0
100
AcDbCircle
 10
68.43609426578125
 20
186.7047393965387
 30
0.0
 40
0.8515231270772069
100
AcDbArc
 50
48.67730496086958
 51
205.4144232239965
  0
ARC
  5
948
102
{ACAD_REACTORS
330
988
102
}
330
1F
100
AcDbEntity
  8
0
100
AcDbCircle
 10
70.85159107682306
 20
174.8487527010971
 30
0.0
 40
0.8972693104604619
100
AcDbArc
 50
178.5724684120199
 51
348.2045078259218
  0
ARC
  5
949
102
{ACAD_REACTORS
330
988
102
}
330
1F
100
AcDbEntity
  8
0
100
AcDbCircle
 10
81.98311365403735
 20
89.26629513528246
 30
0.0
 40
102.4935109305862
100
AcDbArc
 50
84.9569330186269
 51
114.785992978567
  0
ARC
  5
94A
102
{ACAD_REACTORS
330
988
102
}
330
1F
100
AcDbEntity
  8
0
100
AcDbCircle
 10
33.95408539975897
 20
-302.7615100054559
 30
0.0
 40
497.4057547110781
100
AcDbArc
 50
77.87723873629923
 51
83.41527476928536
  0
ARC
  5
94B
102
{ACAD_REACTORS
330
988
102
}
330
1F
100
AcDbEntity
  8
0
100
AcDbCircle
 10
133.3920212384125
 20
213.3843611651541
 30
0.0
 40
30.25186369453033
100
AcDbArc
 50
279.5532858649439
 51
327.1101239506329
  0
ARC
  5
94C
102
{ACAD_REACTORS
330
988
102
}
330
1F
100
AcDbEntity
  8
0
100
AcDbCircle
 10
136.9760509307775
 20
199.1075572571285
 30
0.0
 40
21.92468508986688
100
AcDbArc
 50
301.3797569742056
 51
354.3703987341361
  0
ARC
  5
94D
102
{ACAD_REACTORS
330
988
102
}
330
1F
100
AcDbEntity
  8
0
100
AcDbCircle
 10
85.00881060147104
 20
276.6442651587874
 30
0.0
 40
107.4091407548866
100
AcDbArc
 50
244.6472209342747
 51
273.1823821931761
  0
ARC
  5
94E
102
{ACAD_REACTORS
330
988
102
}
330
1F
100
AcDbEntity
  8
0
100
AcDbCircle
 10
40.39479474607008
 20
623.6712639986947
 30
0.0
 40
457.0773453353374
100
AcDbArc
 50
276.3529343356366
 51
282.3829712216651
  0
ARC
  5
94F
102
{ACAD_REACTORS
330
988
102
}
330
1F
100
AcDbEntity
  8
0
100
AcDbCircle
 10
42.26338960682016
 20
168.9231100369385
 30
0.0
 40
11.13147048180815
100
AcDbArc
 50
75.59152602635919
 51
106.7747012089771
  0
ARC
  5
950
102
{ACAD_REACTORS
330
988
102
}
330
1F
100
AcDbEntity
  8
0
100
AcDbCircle
 10
133.3920212384125
 20
147.3950191660053
 30
0.0
 40
30.25186369453033
100
AcDbArc
 50
32.88987604936725
 51
80.446714135056
  0
ARC
  5
951
102
{ACAD_REACTORS
330
988
102
}
330
1F
100
AcDbEntity
  8
0
100
AcDbCircle
 10
136.9760509307775
 20
161.6718230740308
 30
0.0
 40
21.92468508986688
100
AcDbArc
 50
5.629601265863893
 51
58.62024302579463
  0
ARC
  5
9C4
102
{ACAD_REACTORS
330
A8C
102
}
330
1F
100
AcDbEntity
  8
0
100
AcDbCircle
 10
297.9787862468784
 20
205.1955429285152
 30
0.0
 40
7.537710211886199
100
AcDbArc
 50
321.0800226940794
 51
353.9480447065219
  0
ARC
  5
9C5
102
{ACAD_REACTORS
330
A8C
102
}
330
1F
100
AcDbEntity
  8
0
100
AcDbCircle
 10
304.2022772870104
 20
192.0108655452726
 30
0.0
 40
2.536572549077791
100
AcDbArc
 50
1.084203528821165
 51
299.9400999418203
  0
ARC
  5
9C6
102
{ACAD_REACTORS
330
A8C
102
}
330
1F
100
AcDbEntity
  8
0
100
AcDbCircle
 10
304.3033314781826
 20
192.0162097617101
 30
0.0
 40
1.288442678682157
100
AcDbArc
 50
2.476952546549016
 51
299.4618333975214
  0
LINE
  5
9C7
102
{ACAD_REACTORS
330
A8C
102
}
330
1F
100
AcDbEntity
  8
0
100
AcDbLine
 10
306.7065681170843
 20
192.0259176976027
 30
0.0
 11
305.5905703478949
 21
192.0718930496125
 31
0.0
  0
LINE
  5
9C8
102
{ACAD_REACTORS
330
A8C
102
}
330
1F
100
AcDbEntity
  8
0
100
AcDbLine
 10
305.4638878685717
 20
189.8082098706226
 30
0.0
 11
304.9370438646085
 21
190.8943839519072
 31
0.0
  0
LINE
  5
9C9
102
{ACAD_REACTORS
330
A8C
102
}
330
1F
100
AcDbEntity
  8
0
100
AcDbLine
 10
304.9370438646085
 20
190.8943839519072
 30
0.0
 11
304.9370438646085
 21
190.8943839519072
 31
0.0
  0
ARC
  5
9CA
102
{ACAD_REACTORS
330
A8C
102
}
330
1F
100
AcDbEntity
  8
0
100
AcDbCircle
 10
303.0881564955625
 20
192.4067065321318
 30
0.0
 40
8.463641338113293
100
AcDbArc
 50
255.5861005963302
 51
308.9515035623368
  0
ARC
  5
9CB
102
{ACAD_REACTORS
330
A8C
102
}
330
1F
100
AcDbEntity
  8
0
100
AcDbCircle
 10
303.5901091047187
 20
189.9299391609223
 30
0.0
 40
7.395911242883592
100
AcDbArc
 50
248.4001167294928
 51
317.8914932867584
  0
ARC
  5
9CC
102
{ACAD_REACTORS
330
A8C
102
}
330
1F
100
AcDbEntity
  8
0
100
AcDbCircle
 10
308.6550493677907
 20
185.3289577160973
 30
0.0
 40
0.5534900326001845
100
AcDbArc
 50
319.6650653605217
 51
116.4021836236431
  0
ARC
  5
9CD
102
{ACAD_REACTORS
330
A8C
102
}
330
1F
100
AcDbEntity
  8
0
100
AcDbCircle
 10
300.9768693815399
 20
183.6262690287139
 30
0.0
 40
0.5832250517993003
100
AcDbArc
 50
89.56022881165909
 51
259.1922682255555
  0
ARC
  5
9CE
102
{ACAD_REACTORS
330
A8C
102
}
330
1F
100
AcDbEntity
  8
0
100
AcDbCircle
 10
245.4812696270276
 20
175.4328833185122
 30
0.0
 40
66.62078210488103
100
AcDbArc
 50
355.9446934182668
 51
25.77375337820689
  0
ARC
  5
9CF
102
{ACAD_REACTORS
330
A8C
102
}
330
1F
100
AcDbEntity
  8
0
100
AcDbCircle
 10
-9.837114255175436
 20
202.2543503785473
 30
0.0
 40
323.3137405622008
100
AcDbArc
 50
348.8649991359389
 51
354.4030351689252
  0
ARC
  5
9D0
102
{ACAD_REACTORS
330
A8C
102
}
330
1F
100
AcDbEntity
  8
0
100
AcDbCircle
 10
326.7220727226309
 20
143.412830584288
 30
0.0
 40
19.66371140144471
100
AcDbArc
 50
190.5410462645838
 51
238.0978843502729
  0
ARC
  5
9D1
102
{ACAD_REACTORS
330
A8C
102
}
330
1F
100
AcDbEntity
  8
0
100
AcDbCircle
 10
317.4836890551865
 20
140.9235825756269
 30
0.0
 40
14.25104530841347
100
AcDbArc
 50
212.3675173738451
 51
265.3581591337759
  0
ARC
  5
9D2
102
{ACAD_REACTORS
330
A8C
102
}
330
1F
100
AcDbEntity
  8
0
100
AcDbCircle
 10
367.2927550049234
 20
175.5660860320138
 30
0.0
 40
69.8159414906763
100
AcDbArc
 50
155.6349813339145
 51
184.1701425928157
  0
ARC
  5
9D3
102
{ACAD_REACTORS
330
A8C
102
}
330
1F
100
AcDbEntity
  8
0
100
AcDbCircle
 10
592.3268746738788
 20
208.449404845325
 30
0.0
 40
297.1002744679693
100
AcDbArc
 50
187.3406947352763
 51
193.3707316213048
  0
ARC
  5
9D4
102
{ACAD_REACTORS
330
A8C
102
}
330
1F
100
AcDbEntity
  8
0
100
AcDbCircle
 10
296.8054365981105
 20
202.1394404638996
 30
0.0
 40
7.235455813175297
100
AcDbArc
 50
346.5792864259992
 51
17.76246160861772
  0
ARC
  5
9D5
102
{ACAD_REACTORS
330
A8C
102
}
330
1F
100
AcDbEntity
  8
0
100
AcDbCircle
 10
283.8353743101796
 20
142.6734047495905
 30
0.0
 40
19.66371140144471
100
AcDbArc
 50
303.8776364490063
 51
351.4344745346958
  0
ARC
  5
9D6
102
{ACAD_REACTORS
330
A8C
102
}
330
1F
100
AcDbEntity
  8
0
100
AcDbCircle
 10
293.1540777403789
 20
140.5041065184751
 30
0.0
 40
14.25104530841347
100
AcDbArc
 50
276.6173616655036
 51
329.6080034254344
  0
ARC
  5
9EA
102
{ACAD_REACTORS
330
A8D
102
}
330
1F
100
AcDbEntity
  8
0
100
AcDbCircle
 10
331.0194346391571
 20
124.7843919898907
 30
0.0
 40
7.537710211886199
100
AcDbArc
 50
140.6467202716998
 51
173.5147422841427
  0
ARC
  5
9EB
102
{ACAD_REACTORS
330
A8D
102
}
330
1F
100
AcDbEntity
  8
0
100
AcDbCircle
 10
324.895830449108
 20
138.0157573824119
 30
0.0
 40
2.536572549077791
100
AcDbArc
 50
180.6509011064425
 51
119.5067975194414
  0
ARC
  5
9EC
102
{ACAD_REACTORS
330
A8D
102
}
330
1F
100
AcDbEntity
  8
0
100
AcDbCircle
 10
324.794738732139
 20
138.0111775392831
 30
0.0
 40
1.288442678682157
100
AcDbArc
 50
182.0436501241688
 51
119.0285309751423
  0
LINE
  5
9ED
102
{ACAD_REACTORS
330
A8D
102
}
330
1F
100
AcDbEntity
  8
0
100
AcDbLine
 10
322.3914974000425
 20
138.0196443144398
 30
0.0
 11
323.5071155684233
 21
137.9652305642759
 31
0.0
  0
LINE
  5
9EE
102
{ACAD_REACTORS
330
A8D
102
}
330
1F
100
AcDbEntity
  8
0
100
AcDbLine
 10
323.6509134880725
 20
140.2278909770895
 30
0.0
 11
324.1695282546519
 21
139.1377637077984
 31
0.0
  0
LINE
  5
9EF
102
{ACAD_REACTORS
330
A8D
102
}
330
1F
100
AcDbEntity
  8
0
100
AcDbLine
 10
324.1695282546519
 20
139.1377637077984
 30
0.0
 11
324.1695282546519
 21
139.1377637077984
 31
0.0
  0
ARC
  5
9F0
102
{ACAD_REACTORS
330
A8D
102
}
330
1F
100
AcDbEntity
  8
0
100
AcDbCircle
 10
326.0069258409109
 20
137.6115021967575
 30
0.0
 40
8.463641338113293
100
AcDbArc
 50
75.15279817395128
 51
128.5182011399588
  0
ARC
  5
9F1
102
{ACAD_REACTORS
330
A8D
102
}
330
1F
100
AcDbEntity
  8
0
100
AcDbCircle
 10
325.5237180938479
 20
140.0919947498816
 30
0.0
 40
7.395911242883592
100
AcDbArc
 50
67.96681430711388
 51
137.4581908643792
  0
ARC
  5
9F2
102
{ACAD_REACTORS
330
A8D
102
}
330
1F
100
AcDbEntity
  8
0
100
AcDbCircle
 10
320.493717506307
 20
144.7311481439233
 30
0.0
 40
0.5534900326001845
100
AcDbArc
 50
139.2317629381312
 51
295.9688812012595
  0
ARC
  5
9F3
102
{ACAD_REACTORS
330
A8D
102
}
330
1F
100
AcDbEntity
  8
0
100
AcDbCircle
 10
328.1845544797966
 20
146.3757220445459
 30
0.0
 40
0.5832250517993003
100
AcDbArc
 50
269.1269263892822
 51
78.75896580318114
  0
ARC
  5
9F4
102
{ACAD_REACTORS
330
A8D
102
}
330
1F
100
AcDbEntity
  8
0
100
AcDbCircle
 10
383.7405296141944
 20
154.1491889914963
 30
0.0
 40
66.62078210488103
100
AcDbArc
 50
175.5113909958879
 51
205.3404509558279
  0
ARC
  5
9F5
102
{ACAD_REACTORS
330
A8D
102
}
330
1F
100
AcDbEntity
  8
0
100
AcDbCircle
 10
638.8487755607696
 20
125.3976482756607
 30
0.0
 40
323.3137405622008
100
AcDbArc
 50
168.4316967135601
 51
173.9697327465463
  0
ARC
  5
9F6
102
{ACAD_REACTORS
330
A8D
102
}
330
1F
100
AcDbEntity
  8
0
100
AcDbCircle
 10
302.7442007458899
 20
186.7827081792659
 30
0.0
 40
19.66371140144471
100
AcDbArc
 50
10.1077438422048
 51
57.66458192789367
  0
ARC
  5
9F7
102
{ACAD_REACTORS
330
A8D
102
}
330
1F
100
AcDbEntity
  8
0
100
AcDbCircle
 10
312.0011451256124
 20
189.2020198967283
 30
0.0
 40
14.25104530841347
100
AcDbArc
 50
31.93421495146645
 51
84.92485671139713
  0
ARC
  5
9F8
102
{ACAD_REACTORS
330
A8D
102
}
330
1F
100
AcDbEntity
  8
0
100
AcDbCircle
 10
261.9315202113461
 20
154.9371872332566
 30
0.0
 40
69.8159414906763
100
AcDbArc
 50
335.2016789115356
 51
3.736840170437059
  0
ARC
  5
9F9
102
{ACAD_REACTORS
330
A8D
102
}
330
1F
100
AcDbEntity
  8
0
100
AcDbCircle
 10
36.65515611097635
 20
123.7566251941082
 30
0.0
 40
297.1002744679693
100
AcDbArc
 50
6.907392312897471
 51
12.93742919892597
  0
ARC
  5
9FA
102
{ACAD_REACTORS
330
A8D
102
}
330
1F
100
AcDbEntity
  8
0
100
AcDbCircle
 10
332.2158624542411
 20
127.8315336268656
 30
0.0
 40
7.235455813175297
100
AcDbArc
 50
166.1459840036202
 51
197.329159186239
  0
ARC
  5
9FB
102
{ACAD_REACTORS
330
A8D
102
}
330
1F
100
AcDbEntity
  8
0
100
AcDbCircle
 10
345.6352646658477
 20
187.1977829913945
 30
0.0
 40
19.66371140144471
100
AcDbArc
 50
123.4443340266278
 51
171.0011721123171
  0
ARC
  5
9FC
102
{ACAD_REACTORS
330
A8D
102
}
330
1F
100
AcDbEntity
  8
0
100
AcDbCircle
 10
336.3332329915361
 20
189.4374917147856
 30
0.0
 40
14.25104530841347
100
AcDbArc
 50
96.18405924312466
 51
149.1747010030554
  0
ARC
  5
A00
102
{ACAD_REACTORS
330
A13
102
}
330
1F
100
AcDbEntity
  8
0
100
AcDbCircle
 10
40.87487000154161
 20
102.2167022402569
 30
0.0
 40
11.59647724905569
100
AcDbArc
 50
50.09226229443875
 51
82.96028430688212
  0
ARC
  5
A01
102
{ACAD_REACTORS
330
A13
102
}
330
1F
100
AcDbEntity
  8
0
100
AcDbCircle
 10
61.32102965096479
 20
111.4402068385015
 30
0.0
 40
3.902419306273525
100
AcDbArc
 50
90.09644312918176
 51
28.95233954218215
  0
ARC
  5
A02
102
{ACAD_REACTORS
330
A13
102
}
330
1F
100
AcDbEntity
  8
0
100
AcDbCircle
 10
61.31548908549399
 20
111.5957934578021
 30
0.0
 40
1.982219505664857
100
AcDbArc
 50
91.48919214690463
 51
28.47407299788079
  0
LINE
  5
A03
102
{ACAD_REACTORS
330
A13
102
}
330
1F
100
AcDbEntity
  8
0
100
AcDbLine
 10
61.36429287615539
 20
115.292788646401
 30
0.0
 11
61.2639744120122
 21
113.5773434589513
 31
0.0
  0
LINE
  5
A04
102
{ACAD_REACTORS
330
A13
102
}
330
1F
100
AcDbEntity
  8
0
100
AcDbLine
 10
64.74268662863096
 20
113.3224405743163
 30
0.0
 11
63.05792533029808
 21
112.5408384839418
 31
0.0
  0
LINE
  5
A05
102
{ACAD_REACTORS
330
A13
102
}
330
1F
100
AcDbEntity
  8
0
100
AcDbLine
 10
63.05792533029808
 20
112.5408384839418
 30
0.0
 11
63.05792533029808
 21
112.5408384839418
 31
0.0
  0
ARC
  5
A06
102
{ACAD_REACTORS
330
A13
102
}
330
1F
100
AcDbEntity
  8
0
100
AcDbCircle
 10
60.68258612815697
 20
109.7369277565366
 30
0.0
 40
13.02098667402045
100
AcDbArc
 50
344.5983401966903
 51
37.96374316269803
  0
ARC
  5
A07
102
{ACAD_REACTORS
330
A13
102
}
330
1F
100
AcDbEntity
  8
0
100
AcDbCircle
 10
64.50574365775026
 20
110.4433608014428
 30
0.0
 40
11.37832498905168
100
AcDbArc
 50
337.4123563298534
 51
46.90373288711907
  0
ARC
  5
A08
102
{ACAD_REACTORS
330
A13
102
}
330
1F
100
AcDbEntity
  8
0
100
AcDbCircle
 10
71.71745338250366
 20
118.1123948590238
 30
0.0
 40
0.8515231270772069
100
AcDbArc
 50
48.67730496086958
 51
205.4144232239965
  0
ARC
  5
A09
102
{ACAD_REACTORS
330
A13
102
}
330
1F
100
AcDbEntity
  8
0
100
AcDbCircle
 10
74.13295019354547
 20
106.2564081635822
 30
0.0
 40
0.8972693104604619
100
AcDbArc
 50
178.5724684120199
 51
348.2045078259218
  0
ARC
  5
A0A
102
{ACAD_REACTORS
330
A13
102
}
330
1F
100
AcDbEntity
  8
0
100
AcDbCircle
 10
85.26447277075977
 20
20.67395059776756
 30
0.0
 40
102.4935109305862
100
AcDbArc
 50
84.9569330186269
 51
114.785992978567
  0
ARC
  5
A0B
102
{ACAD_REACTORS
330
A13
102
}
330
1F
100
AcDbEntity
  8
0
100
AcDbCircle
 10
37.23544451648138
 20
-371.3538545429708
 30
0.0
 40
497.4057547110781
100
AcDbArc
 50
77.87723873629923
 51
83.41527476928536
  0
ARC
  5
A0C
102
{ACAD_REACTORS
330
A13
102
}
330
1F
100
AcDbEntity
  8
0
100
AcDbCircle
 10
136.6733803551349
 20
144.7920166276392
 30
0.0
 40
30.25186369453033
100
AcDbArc
 50
279.5532858649439
 51
327.110123950633
  0
ARC
  5
A0D
102
{ACAD_REACTORS
330
A13
102
}
330
1F
100
AcDbEntity
  8
0
100
AcDbCircle
 10
140.2574100474999
 20
130.5152127196135
 30
0.0
 40
21.92468508986688
100
AcDbArc
 50
301.3797569742056
 51
354.3703987341361
  0
ARC
  5
A0E
102
{ACAD_REACTORS
330
A13
102
}
330
1F
100
AcDbEntity
  8
0
100
AcDbCircle
 10
88.29016971819345
 20
208.0519206212725
 30
0.0
 40
107.4091407548866
100
AcDbArc
 50
244.6472209342747
 51
273.1823821931761
  0
ARC
  5
A0F
102
{ACAD_REACTORS
330
A13
102
}
330
1F
100
AcDbEntity
  8
0
100
AcDbCircle
 10
43.67615386279249
 20
555.0789194611798
 30
0.0
 40
457.0773453353374
100
AcDbArc
 50
276.3529343356366
 51
282.3829712216651
  0
ARC
  5
A10
102
{ACAD_REACTORS
330
A13
102
}
330
1F
100
AcDbEntity
  8
0
100
AcDbCircle
 10
45.54474872354257
 20
100.3307654994235
 30
0.0
 40
11.13147048180815
100
AcDbArc
 50
75.59152602635919
 51
106.7747012089771
  0
ARC
  5
A11
102
{ACAD_REACTORS
330
A13
102
}
330
1F
100
AcDbEntity
  8
0
100
AcDbCircle
 10
136.6733803551349
 20
78.80267462849035
 30
0.0
 40
30.25186369453033
100
AcDbArc
 50
32.8898760493672
 51
80.446714135056
  0
ARC
  5
A12
102
{ACAD_REACTORS
330
A13
102
}
330
1F
100
AcDbEntity
  8
0
100
AcDbCircle
 10
140.2574100474999
 20
93.07947853651594
 30
0.0
 40
21.92468508986688
100
AcDbArc
 50
5.629601265863885
 51
58.62024302579463
  0
ARC
  5
A14
102
{ACAD_REACTORS
330
A27
102
}
330
1F
100
AcDbEntity
  8
0
100
AcDbCircle
 10
171.3231901668945
 20
175.1302259512911
 30
0.0
 40
11.59647724905569
100
AcDbArc
 50
50.09226229443871
 51
82.96028430688212
  0
ARC
  5
A15
102
{ACAD_REACTORS
330
A27
102
}
330
1F
100
AcDbEntity
  8
0
100
AcDbCircle
 10
191.7693498163177
 20
184.3537305495357
 30
0.0
 40
3.902419306273525
100
AcDbArc
 50
90.09644312918176
 51
28.95233954218215
  0
ARC
  5
A16
102
{ACAD_REACTORS
330
A27
102
}
330
1F
100
AcDbEntity
  8
0
100
AcDbCircle
 10
191.7638092508469
 20
184.5093171688364
 30
0.0
 40
1.982219505664857
100
AcDbArc
 50
91.48919214690463
 51
28.47407299788089
  0
LINE
  5
A17
102
{ACAD_REACTORS
330
A27
102
}
330
1F
100
AcDbEntity
  8
0
100
AcDbLine
 10
191.8126130415083
 20
188.2063123574353
 30
0.0
 11
191.7122945773651
 21
186.4908671699856
 31
0.0
  0
LINE
  5
A18
102
{ACAD_REACTORS
330
A27
102
}
330
1F
100
AcDbEntity
  8
0
100
AcDbLine
 10
195.1910067939838
 20
186.2359642853505
 30
0.0
 11
193.5062454956509
 21
185.454362194976
 31
0.0
  0
LINE
  5
A19
102
{ACAD_REACTORS
330
A27
102
}
330
1F
100
AcDbEntity
  8
0
100
AcDbLine
 10
193.5062454956509
 20
185.454362194976
 30
0.0
 11
193.5062454956509
 21
185.454362194976
 31
0.0
  0
ARC
  5
A1A
102
{ACAD_REACTORS
330
A27
102
}
330
1F
100
AcDbEntity
  8
0
100
AcDbCircle
 10
191.1309062935098
 20
182.6504514675709
 30
0.0
 40
13.02098667402045
100
AcDbArc
 50
344.5983401966903
 51
37.96374316269807
  0
ARC
  5
A1B
102
{ACAD_REACTORS
330
A27
102
}
330
1F
100
AcDbEntity
  8
0
100
AcDbCircle
 10
194.9540638231031
 20
183.356884512477
 30
0.0
 40
11.37832498905168
100
AcDbArc
 50
337.4123563298535
 51
46.90373288711907
  0
ARC
  5
A1C
102
{ACAD_REACTORS
330
A27
102
}
330
1F
100
AcDbEntity
  8
0
100
AcDbCircle
 10
202.1657735478565
 20
191.025918570058
 30
0.0
 40
0.8515231270772069
100
AcDbArc
 50
48.67730496086958
 51
205.4144232239961
  0
ARC
  5
A1D
102
{ACAD_REACTORS
330
A27
102
}
330
1F
100
AcDbEntity
  8
0
100
AcDbCircle
 10
204.5812703588983
 20
179.1699318746165
 30
0.0
 40
0.8972693104604619
100
AcDbArc
 50
178.5724684120199
 51
348.2045078259216
  0
ARC
  5
A1E
102
{ACAD_REACTORS
330
A27
102
}
330
1F
100
AcDbEntity
  8
0
100
AcDbCircle
 10
215.7127929361126
 20
93.58747430880177
 30
0.0
 40
102.4935109305862
100
AcDbArc
 50
84.9569330186269
 51
114.785992978567
  0
ARC
  5
A1F
102
{ACAD_REACTORS
330
A27
102
}
330
1F
100
AcDbEntity
  8
0
100
AcDbCircle
 10
167.6837646818342
 20
-298.4403308319365
 30
0.0
 40
497.4057547110781
100
AcDbArc
 50
77.87723873629923
 51
83.41527476928536
  0
ARC
  5
A20
102
{ACAD_REACTORS
330
A27
102
}
330
1F
100
AcDbEntity
  8
0
100
AcDbCircle
 10
267.1217005204877
 20
217.7055403386734
 30
0.0
 40
30.25186369453033
100
AcDbArc
 50
279.5532858649439
 51
327.110123950633
  0
ARC
  5
A21
102
{ACAD_REACTORS
330
A27
102
}
330
1F
100
AcDbEntity
  8
0
100
AcDbCircle
 10
270.7057302128527
 20
203.4287364306478
 30
0.0
 40
21.92468508986688
100
AcDbArc
 50
301.3797569742056
 51
354.3703987341361
  0
ARC
  5
A22
102
{ACAD_REACTORS
330
A27
102
}
330
1F
100
AcDbEntity
  8
0
100
AcDbCircle
 10
218.7384898835463
 20
280.9654443323068
 30
0.0
 40
107.4091407548866
100
AcDbArc
 50
244.6472209342747
 51
273.1823821931761
  0
ARC
  5
A23
102
{ACAD_REACTORS
330
A27
102
}
330
1F
100
AcDbEntity
  8
0
100
AcDbCircle
 10
174.1244740281454
 20
627.9924431722139
 30
0.0
 40
457.0773453353374
100
AcDbArc
 50
276.3529343356366
 51
282.3829712216651
  0
ARC
  5
A24
102
{ACAD_REACTORS
330
A27
102
}
330
1F
100
AcDbEntity
  8
0
100
AcDbCircle
 10
175.9930688888954
 20
173.2442892104578
 30
0.0
 40
11.13147048180815
100
AcDbArc
 50
75.59152602635919
 51
106.774701208977
  0
ARC
  5
A25
102
{ACAD_REACTORS
330
A27
102
}
330
1F
100
AcDbEntity
  8
0
100
AcDbCircle
 10
267.1217005204877
 20
151.7161983395246
 30
0.0
 40
30.25186369453033
100
AcDbArc
 50
32.88987604936709
 51
80.44671413505588
  0
ARC
  5
A26
102
{ACAD_REACTORS
330
A27
102
}
330
1F
100
AcDbEntity
  8
0
100
AcDbCircle
 10
270.7057302128527
 20
165.9930022475502
 30
0.0
 40
21.92468508986688
100
AcDbArc
 50
5.629601265863863
 51
58.62024302579447
  0
ARC
  5
A28
102
{ACAD_REACTORS
330
A3B
102
}
330
1F
100
AcDbEntity
  8
0
100
AcDbCircle
 10
172.7952402150164
 20
138.3041013987348
 30
0.0
 40
11.59647724905569
100
AcDbArc
 50
50.09226229443871
 51
82.96028430688212
  0
ARC
  5
A29
102
{ACAD_REACTORS
330
A3B
102
}
330
1F
100
AcDbEntity
  8
0
100
AcDbCircle
 10
193.2413998644396
 20
147.5276059969794
 30
0.0
 40
3.902419306273525
100
AcDbArc
 50
90.09644312918176
 51
28.95233954218215
  0
ARC
  5
A2A
102
{ACAD_REACTORS
330
A3B
102
}
330
1F
100
AcDbEntity
  8
0
100
AcDbCircle
 10
193.2358592989688
 20
147.6831926162801
 30
0.0
 40
1.982219505664857
100
AcDbArc
 50
91.48919214690463
 51
28.47407299788089
  0
LINE
  5
A2B
102
{ACAD_REACTORS
330
A3B
102
}
330
1F
100
AcDbEntity
  8
0
100
AcDbLine
 10
193.2846630896302
 20
151.380187804879
 30
0.0
 11
193.184344625487
 21
149.6647426174293
 31
0.0
  0
LINE
  5
A2C
102
{ACAD_REACTORS
330
A3B
102
}
330
1F
100
AcDbEntity
  8
0
100
AcDbLine
 10
196.6630568421058
 20
149.4098397327943
 30
0.0
 11
194.9782955437729
 21
148.6282376424197
 31
0.0
  0
LINE
  5
A2D
102
{ACAD_REACTORS
330
A3B
102
}
330
1F
100
AcDbEntity
  8
0
100
AcDbLine
 10
194.9782955437729
 20
148.6282376424197
 30
0.0
 11
194.9782955437729
 21
148.6282376424197
 31
0.0
  0
ARC
  5
A2E
102
{ACAD_REACTORS
330
A3B
102
}
330
1F
100
AcDbEntity
  8
0
100
AcDbCircle
 10
192.6029563416318
 20
145.8243269150146
 30
0.0
 40
13.02098667402045
100
AcDbArc
 50
344.5983401966903
 51
37.96374316269807
  0
ARC
  5
A2F
102
{ACAD_REACTORS
330
A3B
102
}
330
1F
100
AcDbEntity
  8
0
100
AcDbCircle
 10
196.4261138712251
 20
146.5307599599207
 30
0.0
 40
11.37832498905168
100
AcDbArc
 50
337.4123563298534
 51
46.90373288711907
  0
ARC
  5
A30
102
{ACAD_REACTORS
330
A3B
102
}
330
1F
100
AcDbEntity
  8
0
100
AcDbCircle
 10
203.6378235959785
 20
154.1997940175017
 30
0.0
 40
0.8515231270772069
100
AcDbArc
 50
48.67730496086958
 51
205.4144232239961
  0
ARC
  5
A31
102
{ACAD_REACTORS
330
A3B
102
}
330
1F
100
AcDbEntity
  8
0
100
AcDbCircle
 10
206.0533204070203
 20
142.3438073220602
 30
0.0
 40
0.8972693104604619
100
AcDbArc
 50
178.5724684120199
 51
348.2045078259216
  0
ARC
  5
A32
102
{ACAD_REACTORS
330
A3B
102
}
330
1F
100
AcDbEntity
  8
0
100
AcDbCircle
 10
217.1848429842346
 20
56.76134975624555
 30
0.0
 40
102.4935109305862
100
AcDbArc
 50
84.9569330186269
 51
114.785992978567
  0
ARC
  5
A33
102
{ACAD_REACTORS
330
A3B
102
}
330
1F
100
AcDbEntity
  8
0
100
AcDbCircle
 10
169.1558147299562
 20
-335.2664553844928
 30
0.0
 40
497.4057547110781
100
AcDbArc
 50
77.87723873629923
 51
83.41527476928536
  0
ARC
  5
A34
102
{ACAD_REACTORS
330
A3B
102
}
330
1F
100
AcDbEntity
  8
0
100
AcDbCircle
 10
268.5937505686097
 20
180.8794157861172
 30
0.0
 40
30.25186369453033
100
AcDbArc
 50
279.5532858649439
 51
327.1101239506329
  0
ARC
  5
A35
102
{ACAD_REACTORS
330
A3B
102
}
330
1F
100
AcDbEntity
  8
0
100
AcDbCircle
 10
272.1777802609747
 20
166.6026118780916
 30
0.0
 40
21.92468508986688
100
AcDbArc
 50
301.3797569742056
 51
354.3703987341361
  0
ARC
  5
A36
102
{ACAD_REACTORS
330
A3B
102
}
330
1F
100
AcDbEntity
  8
0
100
AcDbCircle
 10
220.2105399316683
 20
244.1393197797505
 30
0.0
 40
107.4091407548866
100
AcDbArc
 50
244.6472209342747
 51
273.1823821931761
  0
ARC
  5
A37
102
{ACAD_REACTORS
330
A3B
102
}
330
1F
100
AcDbEntity
  8
0
100
AcDbCircle
 10
175.5965240762673
 20
591.1663186196579
 30
0.0
 40
457.0773453353374
100
AcDbArc
 50
276.3529343356366
 51
282.3829712216651
  0
ARC
  5
A38
102
{ACAD_REACTORS
330
A3B
102
}
330
1F
100
AcDbEntity
  8
0
100
AcDbCircle
 10
177.4651189370174
 20
136.4181646579015
 30
0.0
 40
11.13147048180815
100
AcDbArc
 50
75.59152602635919
 51
106.774701208977
  0
ARC
  5
A39
102
{ACAD_REACTORS
330
A3B
102
}
330
1F
100
AcDbEntity
  8
0
100
AcDbCircle
 10
268.5937505686097
 20
114.8900737869683
 30
0.0
 40
30.25186369453033
100
AcDbArc
 50
32.8898760493672
 51
80.446714135056
  0
ARC
  5
A3A
102
{ACAD_REACTORS
330
A3B
102
}
330
1F
100
AcDbEntity
  8
0
100
AcDbCircle
 10
272.1777802609747
 20
129.1668776949939
 30
0.0
 40
21.92468508986688
100
AcDbArc
 50
5.629601265863878
 51
58.62024302579463
  0
ARC
  5
A3C
102
{ACAD_REACTORS
330
A4F
102
}
330
1F
100
AcDbEntity
  8
0
100
AcDbCircle
 10
167.0715675111005
 20
101.8529782620617
 30
0.0
 40
11.59647724905569
100
AcDbArc
 50
50.09226229443871
 51
82.96028430688212
  0
ARC
  5
A3D
102
{ACAD_REACTORS
330
A4F
102
}
330
1F
100
AcDbEntity
  8
0
100
AcDbCircle
 10
187.5177271605237
 20
111.0764828603063
 30
0.0
 40
3.902419306273525
100
AcDbArc
 50
90.09644312918176
 51
28.95233954218215
  0
ARC
  5
A3E
102
{ACAD_REACTORS
330
A4F
102
}
330
1F
100
AcDbEntity
  8
0
100
AcDbCircle
 10
187.5121865950529
 20
111.232069479607
 30
0.0
 40
1.982219505664857
100
AcDbArc
 50
91.48919214690463
 51
28.47407299788089
  0
LINE
  5
A3F
102
{ACAD_REACTORS
330
A4F
102
}
330
1F
100
AcDbEntity
  8
0
100
AcDbLine
 10
187.5609903857143
 20
114.9290646682059
 30
0.0
 11
187.4606719215711
 21
113.2136194807562
 31
0.0
  0
LINE
  5
A40
102
{ACAD_REACTORS
330
A4F
102
}
330
1F
100
AcDbEntity
  8
0
100
AcDbLine
 10
190.9393841381899
 20
112.9587165961211
 30
0.0
 11
189.254622839857
 21
112.1771145057466
 31
0.0
  0
LINE
  5
A41
102
{ACAD_REACTORS
330
A4F
102
}
330
1F
100
AcDbEntity
  8
0
100
AcDbLine
 10
189.254622839857
 20
112.1771145057466
 30
0.0
 11
189.254622839857
 21
112.1771145057466
 31
0.0
  0
ARC
  5
A42
102
{ACAD_REACTORS
330
A4F
102
}
330
1F
100
AcDbEntity
  8
0
100
AcDbCircle
 10
186.8792836377159
 20
109.3732037783415
 30
0.0
 40
13.02098667402045
100
AcDbArc
 50
344.5983401966903
 51
37.96374316269807
  0
ARC
  5
A43
102
{ACAD_REACTORS
330
A4F
102
}
330
1F
100
AcDbEntity
  8
0
100
AcDbCircle
 10
190.7024411673092
 20
110.0796368232476
 30
0.0
 40
11.37832498905168
100
AcDbArc
 50
337.4123563298534
 51
46.90373288711907
  0
ARC
  5
A44
102
{ACAD_REACTORS
330
A4F
102
}
330
1F
100
AcDbEntity
  8
0
100
AcDbCircle
 10
197.9141508920626
 20
117.7486708808286
 30
0.0
 40
0.8515231270772069
100
AcDbArc
 50
48.67730496086958
 51
205.4144232239961
  0
ARC
  5
A45
102
{ACAD_REACTORS
330
A4F
102
}
330
1F
100
AcDbEntity
  8
0
100
AcDbCircle
 10
200.3296477031044
 20
105.8926841853871
 30
0.0
 40
0.8972693104604619
100
AcDbArc
 50
178.5724684120199
 51
348.2045078259216
  0
ARC
  5
A46
102
{ACAD_REACTORS
330
A4F
102
}
330
1F
100
AcDbEntity
  8
0
100
AcDbCircle
 10
211.4611702803187
 20
20.31022661957238
 30
0.0
 40
102.4935109305862
100
AcDbArc
 50
84.9569330186269
 51
114.785992978567
  0
ARC
  5
A47
102
{ACAD_REACTORS
330
A4F
102
}
330
1F
100
AcDbEntity
  8
0
100
AcDbCircle
 10
163.4321420260403
 20
-371.717578521166
 30
0.0
 40
497.4057547110781
100
AcDbArc
 50
77.87723873629923
 51
83.41527476928536
  0
ARC
  5
A48
102
{ACAD_REACTORS
330
A4F
102
}
330
1F
100
AcDbEntity
  8
0
100
AcDbCircle
 10
262.8700778646938
 20
144.428292649444
 30
0.0
 40
30.25186369453033
100
AcDbArc
 50
279.5532858649439
 51
327.1101239506328
  0
ARC
  5
A49
102
{ACAD_REACTORS
330
A4F
102
}
330
1F
100
AcDbEntity
  8
0
100
AcDbCircle
 10
266.4541075570588
 20
130.1514887414184
 30
0.0
 40
21.92468508986688
100
AcDbArc
 50
301.3797569742056
 51
354.3703987341361
  0
ARC
  5
A4A
102
{ACAD_REACTORS
330
A4F
102
}
330
1F
100
AcDbEntity
  8
0
100
AcDbCircle
 10
214.4868672277524
 20
207.6881966430773
 30
0.0
 40
107.4091407548866
100
AcDbArc
 50
244.6472209342747
 51
273.1823821931761
  0
ARC
  5
A4B
102
{ACAD_REACTORS
330
A4F
102
}
330
1F
100
AcDbEntity
  8
0
100
AcDbCircle
 10
169.8728513723514
 20
554.7151954829845
 30
0.0
 40
457.0773453353374
100
AcDbArc
 50
276.3529343356366
 51
282.3829712216651
  0
ARC
  5
A4C
102
{ACAD_REACTORS
330
A4F
102
}
330
1F
100
AcDbEntity
  8
0
100
AcDbCircle
 10
171.7414462331015
 20
99.96704152122837
 30
0.0
 40
11.13147048180815
100
AcDbArc
 50
75.59152602635919
 51
106.774701208977
  0
ARC
  5
A4D
102
{ACAD_REACTORS
330
A4F
102
}
330
1F
100
AcDbEntity
  8
0
100
AcDbCircle
 10
262.8700778646938
 20
78.43895065029517
 30
0.0
 40
30.25186369453033
100
AcDbArc
 50
32.88987604936725
 51
80.4467141350561
  0
ARC
  5
A4E
102
{ACAD_REACTORS
330
A4F
102
}
330
1F
100
AcDbEntity
  8
0
100
AcDbCircle
 10
266.4541075570588
 20
92.71575455832075
 30
0.0
 40
21.92468508986688
100
AcDbArc
 50
5.629601265863893
 51
58.62024302579476
  0
ARC
  5
A50
102
{ACAD_REACTORS
330
A63
102
}
330
1F
100
AcDbEntity
  8
0
100
AcDbCircle
 10
335.2461721181785
 20
217.2310316322202
 30
0.0
 40
11.59647724905569
100
AcDbArc
 50
321.5940548167977
 51
354.4620768292415
  0
ARC
  5
A51
102
{ACAD_REACTORS
330
A63
102
}
330
1F
100
AcDbEntity
  8
0
100
AcDbCircle
 10
345.0023660050059
 20
197.0336267908507
 30
0.0
 40
3.902419306273525
100
AcDbArc
 50
1.598235651541308
 51
300.4541320645415
  0
ARC
  5
A52
102
{ACAD_REACTORS
330
A63
102
}
330
1F
100
AcDbEntity
  8
0
100
AcDbCircle
 10
345.1577539727878
 20
197.0432431019811
 30
0.0
 40
1.982219505664857
100
AcDbArc
 50
2.990984669264091
 51
299.9758655202405
  0
LINE
  5
A53
102
{ACAD_REACTORS
330
A63
102
}
330
1F
100
AcDbEntity
  8
0
100
AcDbLine
 10
348.8547583246108
 20
197.0913477494529
 30
0.0
 11
347.1372732144188
 21
197.1466729847561
 31
0.0
  0
LINE
  5
A54
102
{ACAD_REACTORS
330
A63
102
}
330
1F
100
AcDbEntity
  8
0
100
AcDbLine
 10
346.9736287530113
 20
193.6624751349062
 30
0.0
 11
346.1481405388388
 21
195.3261733251741
 31
0.0
  0
LINE
  5
A55
102
{ACAD_REACTORS
330
A63
102
}
330
1F
100
AcDbEntity
  8
0
100
AcDbLine
 10
346.1481405388388
 20
195.3261733251741
 30
0.0
 11
346.1481405388388
 21
195.3261733251741
 31
0.0
  0
ARC
  5
A56
102
{ACAD_REACTORS
330
A63
102
}
330
1F
100
AcDbEntity
  8
0
100
AcDbCircle
 10
343.2829395197741
 20
197.6272110938421
 30
0.0
 40
13.02098667402045
100
AcDbArc
 50
256.1001327190497
 51
309.4655356850575
  0
ARC
  5
A57
102
{ACAD_REACTORS
330
A63
102
}
330
1F
100
AcDbEntity
  8
0
100
AcDbCircle
 10
344.0893280739025
 20
193.8238811524891
 30
0.0
 40
11.37832498905168
100
AcDbArc
 50
248.9141488522125
 51
318.4055254094782
  0
ARC
  5
A58
102
{ACAD_REACTORS
330
A63
102
}
330
1F
100
AcDbEntity
  8
0
100
AcDbCircle
 10
351.944733957307
 20
186.8156403648582
 30
0.0
 40
0.8515231270772069
100
AcDbArc
 50
320.1790974832279
 51
116.9162157463561
  0
ARC
  5
A59
102
{ACAD_REACTORS
330
A63
102
}
330
1F
100
AcDbEntity
  8
0
100
AcDbCircle
 10
340.1561256067955
 20
184.0902489205169
 30
0.0
 40
0.8972693104604619
100
AcDbArc
 50
90.07426093438067
 51
259.7063003482792
  0
ARC
  5
A5A
102
{ACAD_REACTORS
330
A63
102
}
330
1F
100
AcDbEntity
  8
0
100
AcDbCircle
 10
254.8948025678562
 20
170.7195858277171
 30
0.0
 40
102.4935109305862
100
AcDbArc
 50
356.4587255409862
 51
26.28778550092636
  0
ARC
  5
A5B
102
{ACAD_REACTORS
330
A63
102
}
330
1F
100
AcDbEntity
  8
0
100
AcDbCircle
 10
-138.2570986721186
 20
208.4577642404086
 30
0.0
 40
497.4057547110781
100
AcDbArc
 50
349.3790312586586
 51
354.9170672916447
  0
ARC
  5
A5C
102
{ACAD_REACTORS
330
A63
102
}
330
1F
100
AcDbEntity
  8
0
100
AcDbCircle
 10
380.3175708420849
 20
122.5812508706008
 30
0.0
 40
30.25186369453033
100
AcDbArc
 50
191.0550783873032
 51
238.6119164729921
  0
ARC
  5
A5D
102
{ACAD_REACTORS
330
A63
102
}
330
1F
100
AcDbEntity
  8
0
100
AcDbCircle
 10
366.1396019866422
 20
118.6242826121907
 30
0.0
 40
21.92468508986688
100
AcDbArc
 50
212.8815494965648
 51
265.8721912564955
  0
ARC
  5
A5E
102
{ACAD_REACTORS
330
A63
102
}
330
1F
100
AcDbEntity
  8
0
100
AcDbCircle
 10
442.2877074350844
 20
172.6057718125083
 30
0.0
 40
107.4091407548866
100
AcDbArc
 50
156.149013456634
 51
184.6841747155354
  0
ARC
  5
A5F
102
{ACAD_REACTORS
330
A63
102
}
330
1F
100
AcDbEntity
  8
0
100
AcDbCircle
 10
788.0262503437266
 20
226.2994239697971
 30
0.0
 40
457.0773453353374
100
AcDbArc
 50
187.8547268579958
 51
193.8847637440243
  0
ARC
  5
A60
102
{ACAD_REACTORS
330
A63
102
}
330
1F
100
AcDbEntity
  8
0
100
AcDbCircle
 10
333.4832724090762
 20
212.5133299370862
 30
0.0
 40
11.13147048180815
100
AcDbArc
 50
347.0933185487186
 51
18.27649373133667
  0
ARC
  5
A61
102
{ACAD_REACTORS
330
A63
102
}
330
1F
100
AcDbEntity
  8
0
100
AcDbCircle
 10
314.3508958170187
 20
120.8517874804305
 30
0.0
 40
30.25186369453033
100
AcDbArc
 50
304.3916685717265
 51
351.9485066574154
  0
ARC
  5
A62
102
{ACAD_REACTORS
330
A63
102
}
330
1F
100
AcDbEntity
  8
0
100
AcDbCircle
 10
328.7167267712322
 20
117.6431585428728
 30
0.0
 40
21.92468508986688
100
AcDbArc
 50
277.1313937882232
 51
330.122035548154
  0
ENDSEC
  0
SECTION
  2
OBJECTS
  0
DICTIONARY
  5
C
330
0
100
AcDbDictionary
281
     1
  3
ACAD_COLOR
350
73
  3
ACAD_DETAILVIEWSTYLE
350
122
  3
ACAD_GROUP
350
D
  3
ACAD_IMAGE_VARS
350
DC
  3
ACAD_LAYOUT
350
1A
  3
ACAD_MATERIAL
350
72
  3
ACAD_MLEADERSTYLE
350
B5
  3
ACAD_MLINESTYLE
350
17
  3
ACAD_PLOTSETTINGS
350
19
  3
ACAD_PLOTSTYLENAME
350
E
  3
ACAD_SCALELIST
350
B6
  3
ACAD_SECTIONVIEWSTYLE
350
123
  3
ACAD_TABLESTYLE
350
86
  3
ACAD_VISUALSTYLE
350
99
  3
ACDB_RECOMPOSE_DATA
350
AAE
  3
AcDbVariableDictionary
350
66
  3
APPDATA
350
E1
  0
SUN
  5
ED
330
94
100
AcDbSun
 90
        1
290
     0
 63
     7
421
 16777215
 40
1.0
291
     1
 91
  2455826
 92
 54000000
292
     0
 70
     2
 71
   256
280
     1
  0
DICTIONARY
  5
73
102
{ACAD_REACTORS
330
C
102
}
330
C
100
AcDbDictionary
281
     1
  0
DICTIONARY
  5
122
102
{ACAD_REACTORS
330
C
102
}
330
C
100
AcDbDictionary
281
     1
  0
DICTIONARY
  5
D
102
{ACAD_REACTORS
330
C
102
}
330
C
100
AcDbDictionary
281
     1
  3
*A1
350
68B
  3
*A10
350
A8C
  3
*A11
350
A8D
  3
*A12
350
A8F
  3
*A2
350
988
  3
*A3
350
A13
  3
*A4
350
A27
  3
*A5
350
A3B
  3
*A6
350
A4F
  3
*A7
350
A63
  3
*A8
350
A77
  3
*A9
350
A8B
  0
RASTERVARIABLES
  5
DC
102
{ACAD_REACTORS
330
C
102
}
330
C
100
AcDbRasterVariables
 90
        0
 70
     1
 71
     1
 72
     5
  0
DICTIONARY
  5
1A
102
{ACAD_REACTORS
330
C
102
}
330
C
100
AcDbDictionary
281
     1
  3
Model
350
22
  3
Sheet1
350
59
  3
Sheet2
350
5E
  0
DICTIONARY
  5
72
102
{ACAD_REACTORS
330
C
102
}
330
C
100
AcDbDictionary
281
     1
  3
ByBlock
350
E2
  3
ByLayer
350
96
  3
Global
350
98
  0
DICTIONARY
  5
B5
102
{ACAD_REACTORS
330
C
102
}
330
C
100
AcDbDictionary
281
     1
  0
DICTIONARY
  5
17
102
{ACAD_REACTORS
330
C
102
}
330
C
100
AcDbDictionary
281
     1
  3
Standard
350
18
  0
DICTIONARY
  5
19
102
{ACAD_REACTORS
330
C
102
}
330
C
100
AcDbDictionary
281
     1
  0
ACDBDICTIONARYWDFLT
  5
E
102
{ACAD_REACTORS
330
C
102
}
330
C
100
AcDbDictionary
281
     1
  3
Normal
350
F
100
AcDbDictionaryWithDefault
340
F
  0
DICTIONARY
  5
B6
102
{ACAD_REACTORS
330
C
102
}
330
C
100
AcDbDictionary
281
     1
  3
A0
350
B7
  3
A1
350
B8
  3
A2
350
B9
  3
A3
350
BA
  3
A4
350
BB
  3
A5
350
BC
  3
A6
350
BD
  3
A7
350
BE
  3
A8
350
BF
  3
A9
350
C0
  3
B0
350
C1
  3
B1
350
C2
  3
B2
350
C3
  3
B3
350
C4
  3
B4
350
C5
  3
B5
350
C6
  3
B6
350
C7
  3
B7
350
C8
  3
B8
350
C9
  3
B9
350
CA
  3
C0
350
CB
  3
C1
350
CC
  3
C2
350
CD
  3
C3
350
CE
  3
C4
350
CF
  3
C5
350
D0
  3
C6
350
D1
  3
C7
350
D2
  3
C8
350
D3
  3
C9
350
D4
  3
D0
350
D5
  3
D1
350
D6
  3
D2
350
D7
  0
DICTIONARY
  5
123
102
{ACAD_REACTORS
330
C
102
}
330
C
100
AcDbDictionary
281
     1
  0
DICTIONARY
  5
86
102
{ACAD_REACTORS
330
C
102
}
330
C
100
AcDbDictionary
281
     1
  3
Standard
350
87
  0
DICTIONARY
  5
99
102
{ACAD_REACTORS
330
C
102
}
330
C
100
AcDbDictionary
281
     1
  3
2dWireframe
350
9F
  3
3D Hidden
350
A1
  3
3dWireframe
350
A0
  3
Basic
350
9E
  3
Brighten
350
A5
  3
ColorChange
350
A9
  3
Conceptual
350
A2
  3
Dim
350
A4
  3
EdgeColorOff
350
E7
  3
Facepattern
350
A8
  3
Flat
350
9A
  3
FlatWithEdges
350
9B
  3
Gouraud
350
9C
  3
GouraudWithEdges
350
9D
  3
Hidden
350
E4
  3
JitterOff
350
E5
  3
Linepattern
350
A7
  3
OverhangOff
350
E6
  3
Realistic
350
A3
  3
Shaded
350
EC
  3
Shaded with edges
350
EB
  3
Shades of Gray
350
E8
  3
Sketchy
350
E9
  3
Thicken
350
A6
  3
Wireframe
350
E3
  3
X-Ray
350
EA
  0
XRECORD
  5
AAE
102
{ACAD_REACTORS
330
C
102
}
330
C
100
AcDbXrecord
280
     1
 90
        1
330
87
  0
DICTIONARY
  5
66
102
{ACAD_REACTORS
330
C
102
}
330
C
100
AcDbDictionary
281
     1
  3
CANNOSCALE
350
D8
  3
CTABLESTYLE
350
89
  3
DIMASSOC
350
67
  3
HIDETEXT
350
6B
  3
HPTRANSPARENCY
350
124
  3
LIGHTSINBLOCKS
350
DF
  3
XCLIPFRAME
350
E0
  0
DICTIONARY
  5
E1
102
{ACAD_REACTORS
330
C
102
}
330
C
100
AcDbDictionary
281
     1
  0
GROUP
  5
68B
102
{ACAD_REACTORS
330
D
102
}
330
D
100
AcDbGroup
300

 70
     1
 71
     1
  0
GROUP
  5
A8C
102
{ACAD_REACTORS
330
D
102
}
330
D
100
AcDbGroup
300

 70
     1
 71
     1
340
9C4
340
9C5
340
9C6
340
9C7
340
9C8
340
9C9
340
9CA
340
9CB
340
9CC
340
9CD
340
9CE
340
9CF
340
9D0
340
9D1
340
9D2
340
9D3
340
9D4
340
9D5
340
9D6
  0
GROUP
  5
A8D
102
{ACAD_REACTORS
330
D
102
}
330
D
100
AcDbGroup
300

 70
     1
 71
     1
340
9EA
340
9EB
340
9EC
340
9ED
340
9EE
340
9EF
340
9F0
340
9F1
340
9F2
340
9F3
340
9F4
340
9F5
340
9F6
340
9F7
340
9F8
340
9F9
340
9FA
340
9FB
340
9FC
  0
GROUP
  5
A8F
102
{ACAD_REACTORS
330
D
102
}
330
D
100
AcDbGroup
300

 70
     1
 71
     1
340
8C4
340
8BA
340
8CA
340
8C8
340
8BB
340
8BC
340
8BD
340
8BE
340
8C0
340
8C1
340
8C2
340
8C3
340
8C9
340
8C5
340
8C6
340
8C7
340
8CC
340
8CB
  0
GROUP
  5
988
102
{ACAD_REACTORS
330
D
102
}
330
D
100
AcDbGroup
300

 70
     1
 71
     1
340
93F
340
940
340
941
340
942
340
943
340
944
340
945
340
946
340
947
340
948
340
949
340
94A
340
94B
340
94C
340
94D
340
94E
340
94F
340
950
340
951
  0
GROUP
  5
A13
102
{ACAD_REACTORS
330
D
102
}
330
D
100
AcDbGroup
300

 70
     1
 71
     1
340
A00
340
A01
340
A02
340
A03
340
A04
340
A05
340
A06
340
A07
340
A08
340
A09
340
A0A
340
A0B
340
A0C
340
A0D
340
A0E
340
A0F
340
A10
340
A11
340
A12
  0
GROUP
  5
A27
102
{ACAD_REACTORS
330
D
102
}
330
D
100
AcDbGroup
300

 70
     1
 71
     1
340
A14
340
A15
340
A16
340
A17
340
A18
340
A19
340
A1A
340
A1B
340
A1C
340
A1D
340
A1E
340
A1F
340
A20
340
A21
340
A22
340
A23
340
A24
340
A25
340
A26
  0
GROUP
  5
A3B
102
{ACAD_REACTORS
330
D
102
}
330
D
100
AcDbGroup
300

 70
     1
 71
     1
340
A28
340
A29
340
A2A
340
A2B
340
A2C
340
A2D
340
A2E
340
A2F
340
A30
340
A31
340
A32
340
A33
340
A34
340
A35
340
A36
340
A37
340
A38
340
A39
340
A3A
  0
GROUP
  5
A4F
102
{ACAD_REACTORS
330
D
102
}
330
D
100
AcDbGroup
300

 70
     1
 71
     1
340
A3C
340
A3D
340
A3E
340
A3F
340
A40
340
A41
340
A42
340
A43
340
A44
340
A45
340
A46
340
A47
340
A48
340
A49
340
A4A
340
A4B
340
A4C
340
A4D
340
A4E
  0
GROUP
  5
A63
102
{ACAD_REACTORS
330
D
102
}
330
D
100
AcDbGroup
300

 70
     1
 71
     1
340
A50
340
A51
340
A52
340
A53
340
A54
340
A55
340
A56
340
A57
340
A58
340
A59
340
A5A
340
A5B
340
A5C
340
A5D
340
A5E
340
A5F
340
A60
340
A61
340
A62
  0
GROUP
  5
A77
102
{ACAD_REACTORS
330
D
102
}
330
D
100
AcDbGroup
300

 70
     1
 71
     1
  0
GROUP
  5
A8B
102
{ACAD_REACTORS
330
D
102
}
330
D
100
AcDbGroup
300

 70
     1
 71
     1
  0
LAYOUT
  5
22
102
{ACAD_REACTORS
330
1A
102
}
330
1A
100
AcDbPlotSettings
  1

  2
none_device
  4
ANSI_A_(8.50_x_11.00_Inches)
  6

 40
6.35
 41
19.05
 42
6.35
 43
19.05
 44
215.9
 45
279.4
 46
11.11250000000003
 47
0.0000000000000142
 48
0.0
 49
0.0
140
0.0
141
0.0
142
1.0
143
1.263157894736842
 70
 11444
 72
     0
 73
     1
 74
     1
  7
monochrome.ctb
 75
     0
 76
     0
 77
     2
 78
   300
147
0.7916666666666665
148
-702.8076765758875
149
-496.2830551296954
100
AcDbLayout
  1
Model
 70
     1
 71
     0
 10
0.0
 20
0.0
 11
550.0
 21
450.0
 12
0.0
 22
0.0
 32
0.0
 14
-0.0632281147469342
 24
72.91499999999999
 34
0.0
 15
549.9108798561235
 25
450.0
 35
0.0
146
0.0
 13
0.0
 23
0.0
 33
0.0
 16
1.0
 26
0.0
 36
0.0
 17
0.0
 27
1.0
 37
0.0
 76
     0
330
1F
331
94
  0
LAYOUT
  5
59
102
{ACAD_REACTORS
330
1A
102
}
330
1A
100
AcDbPlotSettings
  1

  2
None
  4

  6

 40
0.0
 41
0.0
 42
0.0
 43
0.0
 44
0.0
 45
0.0
 46
0.0
 47
0.0
 48
0.0
 49
0.0
140
0.0
141
0.0
142
1.0
143
1.0
 70
   688
 72
     0
 73
     0
 74
     5
  7

 75
    16
 76
     0
 77
     2
 78
   300
147
1.0
148
0.0
149
0.0
100
AcDbLayout
  1
Sheet1
 70
     1
 71
     1
 10
0.0
 20
0.0
 11
12.0
 21
9.0
 12
0.0
 22
0.0
 32
0.0
 14
0.0
 24
0.0
 34
0.0
 15
0.0
 25
0.0
 35
0.0
146
0.0
 13
0.0
 23
0.0
 33
0.0
 16
1.0
 26
0.0
 36
0.0
 17
0.0
 27
1.0
 37
0.0
 76
     0
330
58
  0
LAYOUT
  5
5E
102
{ACAD_REACTORS
330
1A
102
}
330
1A
100
AcDbPlotSettings
  1

  2
None
  4

  6

 40
0.0
 41
0.0
 42
0.0
 43
0.0
 44
0.0
 45
0.0
 46
0.0
 47
0.0
 48
0.0
 49
0.0
140
0.0
141
0.0
142
1.0
143
1.0
 70
   688
 72
     0
 73
     0
 74
     5
  7

 75
    16
 76
     0
 77
     2
 78
   300
147
1.0
148
0.0
149
0.0
100
AcDbLayout
  1
Sheet2
 70
     1
 71
     2
 10
0.0
 20
0.0
 11
12.0
 21
9.0
 12
0.0
 22
0.0
 32
0.0
 14
0.0
 24
0.0
 34
0.0
 15
0.0
 25
0.0
 35
0.0
146
0.0
 13
0.0
 23
0.0
 33
0.0
 16
1.0
 26
0.0
 36
0.0
 17
0.0
 27
1.0
 37
0.0
 76
     0
330
5D
  0
MATERIAL
  5
E2
102
{ACAD_REACTORS
330
72
102
}
330
72
100
AcDbMaterial
  1
ByBlock
 72
     1
 94
      127
  0
MATERIAL
  5
96
102
{ACAD_REACTORS
330
72
102
}
330
72
100
AcDbMaterial
  1
ByLayer
 72
     1
 94
       63
  0
MATERIAL
  5
98
102
{ACAD_REACTORS
330
72
102
}
330
72
100
AcDbMaterial
  1
Global
 72
     1
 94
       63
  0
MLINESTYLE
  5
18
102
{ACAD_REACTORS
330
17
102
}
330
17
100
AcDbMlineStyle
  2
STANDARD
 70
     0
  3

 62
   256
 51
90.0
 52
90.0
 71
     2
 49
0.5
 62
   256
  6
BYLAYER
 49
-0.5
 62
   256
  6
BYLAYER
  0
ACDBPLACEHOLDER
  5
F
102
{ACAD_REACTORS
330
E
102
}
330
E
  0
SCALE
  5
B7
102
{ACAD_REACTORS
330
B6
102
}
330
B6
100
AcDbScale
 70
     0
300
1:1
140
1.0
141
1.0
290
     1
  0
SCALE
  5
B8
102
{ACAD_REACTORS
330
B6
102
}
330
B6
100
AcDbScale
 70
     0
300
1:2
140
1.0
141
2.0
290
     0
  0
SCALE
  5
B9
102
{ACAD_REACTORS
330
B6
102
}
330
B6
100
AcDbScale
 70
     0
300
1:4
140
1.0
141
4.0
290
     0
  0
SCALE
  5
BA
102
{ACAD_REACTORS
330
B6
102
}
330
B6
100
AcDbScale
 70
     0
300
1:5
140
1.0
141
5.0
290
     0
  0
SCALE
  5
BB
102
{ACAD_REACTORS
330
B6
102
}
330
B6
100
AcDbScale
 70
     0
300
1:8
140
1.0
141
8.0
290
     0
  0
SCALE
  5
BC
102
{ACAD_REACTORS
330
B6
102
}
330
B6
100
AcDbScale
 70
     0
300
1:10
140
1.0
141
10.0
290
     0
  0
SCALE
  5
BD
102
{ACAD_REACTORS
330
B6
102
}
330
B6
100
AcDbScale
 70
     0
300
1:16
140
1.0
141
16.0
290
     0
  0
SCALE
  5
BE
102
{ACAD_REACTORS
330
B6
102
}
330
B6
100
AcDbScale
 70
     0
300
1:20
140
1.0
141
20.0
290
     0
  0
SCALE
  5
BF
102
{ACAD_REACTORS
330
B6
102
}
330
B6
100
AcDbScale
 70
     0
300
1:30
140
1.0
141
30.0
290
     0
  0
SCALE
  5
C0
102
{ACAD_REACTORS
330
B6
102
}
330
B6
100
AcDbScale
 70
     0
300
1:40
140
1.0
141
40.0
290
     0
  0
SCALE
  5
C1
102
{ACAD_REACTORS
330
B6
102
}
330
B6
100
AcDbScale
 70
     0
300
1:50
140
1.0
141
50.0
290
     0
  0
SCALE
  5
C2
102
{ACAD_REACTORS
330
B6
102
}
330
B6
100
AcDbScale
 70
     0
300
1:100
140
1.0
141
100.0
290
     0
  0
SCALE
  5
C3
102
{ACAD_REACTORS
330
B6
102
}
330
B6
100
AcDbScale
 70
     0
300
2:1
140
2.0
141
1.0
290
     0
  0
SCALE
  5
C4
102
{ACAD_REACTORS
330
B6
102
}
330
B6
100
AcDbScale
 70
     0
300
4:1
140
4.0
141
1.0
290
     0
  0
SCALE
  5
C5
102
{ACAD_REACTORS
330
B6
102
}
330
B6
100
AcDbScale
 70
     0
300
8:1
140
8.0
141
1.0
290
     0
  0
SCALE
  5
C6
102
{ACAD_REACTORS
330
B6
102
}
330
B6
100
AcDbScale
 70
     0
300
10:1
140
10.0
141
1.0
290
     0
  0
SCALE
  5
C7
102
{ACAD_REACTORS
330
B6
102
}
330
B6
100
AcDbScale
 70
     0
300
100:1
140
100.0
141
1.0
290
     0
  0
SCALE
  5
C8
102
{ACAD_REACTORS
330
B6
102
}
330
B6
100
AcDbScale
 70
     0
300
1/128" = 1'-0"
140
0.0078125
141
12.0
290
     0
  0
SCALE
  5
C9
102
{ACAD_REACTORS
330
B6
102
}
330
B6
100
AcDbScale
 70
     0
300
1/64" = 1'-0"
140
0.015625
141
12.0
290
     0
  0
SCALE
  5
CA
102
{ACAD_REACTORS
330
B6
102
}
330
B6
100
AcDbScale
 70
     0
300
1/32" = 1'-0"
140
0.03125
141
12.0
290
     0
  0
SCALE
  5
CB
102
{ACAD_REACTORS
330
B6
102
}
330
B6
100
AcDbScale
 70
     0
300
1/16" = 1'-0"
140
0.0625
141
12.0
290
     0
  0
SCALE
  5
CC
102
{ACAD_REACTORS
330
B6
102
}
330
B6
100
AcDbScale
 70
     0
300
3/32" = 1'-0"
140
0.09375
141
12.0
290
     0
  0
SCALE
  5
CD
102
{ACAD_REACTORS
330
B6
102
}
330
B6
100
AcDbScale
 70
     0
300
1/8" = 1'-0"
140
0.125
141
12.0
290
     0
  0
SCALE
  5
CE
102
{ACAD_REACTORS
330
B6
102
}
330
B6
100
AcDbScale
 70
     0
300
3/16" = 1'-0"
140
0.1875
141
12.0
290
     0
  0
SCALE
  5
CF
102
{ACAD_REACTORS
330
B6
102
}
330
B6
100
AcDbScale
 70
     0
300
1/4" = 1'-0"
140
0.25
141
12.0
290
     0
  0
SCALE
  5
D0
102
{ACAD_REACTORS
330
B6
102
}
330
B6
100
AcDbScale
 70
     0
300
3/8" = 1'-0"
140
0.375
141
12.0
290
     0
  0
SCALE
  5
D1
102
{ACAD_REACTORS
330
B6
102
}
330
B6
100
AcDbScale
 70
     0
300
1/2" = 1'-0"
140
0.5
141
12.0
290
     0
  0
SCALE
  5
D2
102
{ACAD_REACTORS
330
B6
102
}
330
B6
100
AcDbScale
 70
     0
300
3/4" = 1'-0"
140
0.75
141
12.0
290
     0
  0
SCALE
  5
D3
102
{ACAD_REACTORS
330
B6
102
}
330
B6
100
AcDbScale
 70
     0
300
1" = 1'-0"
140
1.0
141
12.0
290
     0
  0
SCALE
  5
D4
102
{ACAD_REACTORS
330
B6
102
}
330
B6
100
AcDbScale
 70
     0
300
1-1/2" = 1'-0"
140
1.5
141
12.0
290
     0
  0
SCALE
  5
D5
102
{ACAD_REACTORS
330
B6
102
}
330
B6
100
AcDbScale
 70
     0
300
3" = 1'-0"
140
3.0
141
12.0
290
     0
  0
SCALE
  5
D6
102
{ACAD_REACTORS
330
B6
102
}
330
B6
100
AcDbScale
 70
     0
300
6" = 1'-0"
140
6.0
141
12.0
290
     0
  0
SCALE
  5
D7
102
{ACAD_REACTORS
330
B6
102
}
330
B6
100
AcDbScale
 70
     0
300
1'-0" = 1'-0"
140
12.0
141
12.0
290
     0
  0
TABLESTYLE
  5
87
102
{ACAD_REACTORS
330
86
102
}
102
{ACAD_XDICTIONARY
360
AAC
102
}
330
86
100
AcDbTableStyle
  3
Standard
 70
     0
 71
     0
 40
0.06
 41
0.06
280
     0
281
     0
  7
Standard
140
0.18
170
     2
 62
     0
 63
   257
283
     0
 90
      512
 91
        0
  1

274
    -2
284
     1
 64
     0
275
    -2
285
     1
 65
     0
276
    -2
286
     1
 66
     0
277
    -2
287
     1
 67
     0
278
    -2
288
     1
 68
     0
279
    -2
289
     1
 69
     0
  7
Standard
140
0.25
170
     5
 62
     0
 63
   257
283
     0
 90
      512
 91
        0
  1

274
    -2
284
     1
 64
     0
275
    -2
285
     1
 65
     0
276
    -2
286
     1
 66
     0
277
    -2
287
     1
 67
     0
278
    -2
288
     1
 68
     0
279
    -2
289
     1
 69
     0
  7
Standard
140
0.18
170
     5
 62
     0
 63
   257
283
     0
 90
      512
 91
        0
  1

274
    -2
284
     1
 64
     0
275
    -2
285
     1
 65
     0
276
    -2
286
     1
 66
     0
277
    -2
287
     1
 67
     0
278
    -2
288
     1
 68
     0
279
    -2
289
     1
 69
     0
  0
VISUALSTYLE
  5
9F
102
{ACAD_REACTORS
330
99
102
}
330
99
100
AcDbVisualStyle
  2
2dWireframe
 70
     4
177
     3
291
     0
 70
    58
 90
        0
176
     1
 90
        2
176
     1
 90
        1
176
     1
 90
        0
176
     1
 40
-0.6
176
     1
 40
-30.0
176
     1
 62
     7
420
 16777215
176
     1
 90
        1
176
     1
 90
        4
176
     1
 62
     7
176
     1
 62
   257
176
     1
 90
        1
176
     1
 90
        1
176
     1
 40
1.0
176
     1
 90
        0
176
     1
 62
   257
176
     1
 40
1.0
176
     1
 90
        1
176
     1
 90
        6
176
     1
 90
        2
176
     1
 62
     7
176
     1
 90
        5
176
     1
 90
        0
176
     1
 90
        0
176
     1
290
     0
176
     1
 90
        1
176
     1
 40
0.0
176
     1
 90
        0
176
     1
290
     1
176
     1
290
     1
176
     1
290
     0
176
     1
290
     0
176
     1
290
     0
176
     1
290
     0
176
     1
290
     0
176
     1
290
     0
176
     1
290
     0
176
     1
 90
       50
176
     1
 40
0.0
176
     1
 40
1.0
176
     1
 90
        0
176
     1
 62
    18
420
        0
176
     1
 90
       50
176
     1
 90
        3
176
     1
 62
     5
420
      255
176
     1
290
     0
176
     1
 90
       50
176
     1
 90
       50
176
     1
 90
       50
176
     1
290
     0
176
     1
 90
       50
176
     1
 62
   256
176
     0
 40
1.0
176
     0
 90
        2
176
     1
  1
strokes_ogs.tif
176
     1
290
     0
176
     1
 40
1.0
176
     1
 40
1.0
176
     1
  0
VISUALSTYLE
  5
A1
102
{ACAD_REACTORS
330
99
102
}
330
99
100
AcDbVisualStyle
  2
3D Hidden
 70
     6
177
     3
291
     0
 70
    58
 90
        1
176
     1
 90
        2
176
     1
 90
        2
176
     1
 90
        0
176
     1
 40
-0.6
176
     1
 40
-30.0
176
     1
 62
     7
420
 16777215
176
     1
 90
        2
176
     1
 90
        2
176
     1
 62
     7
176
     1
 62
   257
176
     1
 90
        2
176
     1
 90
        1
176
     1
 40
40.0
176
     1
 90
        0
176
     1
 62
   257
176
     1
 40
1.0
176
     1
 90
        1
176
     1
 90
        6
176
     1
 90
        2
176
     1
 62
     7
176
     1
 90
        3
176
     1
 90
        0
176
     1
 90
        0
176
     1
290
     0
176
     1
 90
        1
176
     1
 40
0.0
176
     1
 90
        0
176
     1
290
     0
176
     1
290
     1
176
     1
290
     1
176
     1
290
     0
176
     1
290
     0
176
     1
290
     0
176
     1
290
     0
176
     1
290
     0
176
     1
290
     0
176
     1
 90
       50
176
     1
 40
0.0
176
     1
 40
1.0
176
     1
 90
        0
176
     1
 62
    18
420
        0
176
     1
 90
       50
176
     1
 90
        3
176
     1
 62
     5
420
      255
176
     1
290
     0
176
     1
 90
       50
176
     1
 90
       50
176
     1
 90
       50
176
     1
290
     0
176
     1
 90
       50
176
     1
 62
   256
176
     0
 40
1.0
176
     0
 90
        2
176
     1
  1
strokes_ogs.tif
176
     1
290
     0
176
     1
 40
1.0
176
     1
 40
1.0
176
     1
  0
VISUALSTYLE
  5
A0
102
{ACAD_REACTORS
330
99
102
}
330
99
100
AcDbVisualStyle
  2
3dWireframe
 70
     5
177
     3
291
     0
 70
    58
 90
        0
176
     1
 90
        2
176
     1
 90
        1
176
     1
 90
        0
176
     1
 40
-0.6
176
     1
 40
-30.0
176
     1
 62
     7
420
 16777215
176
     1
 90
        1
176
     1
 90
        4
176
     1
 62
     7
176
     1
 62
   257
176
     1
 90
        1
176
     1
 90
        1
176
     1
 40
1.0
176
     1
 90
        0
176
     1
 62
   257
176
     1
 40
1.0
176
     1
 90
        1
176
     1
 90
        6
176
     1
 90
        2
176
     1
 62
     7
176
     1
 90
        5
176
     1
 90
        0
176
     1
 90
        0
176
     1
290
     0
176
     1
 90
        1
176
     1
 40
0.0
176
     1
 90
        0
176
     1
290
     0
176
     1
290
     1
176
     1
290
     1
176
     1
290
     0
176
     1
290
     0
176
     1
290
     0
176
     1
290
     0
176
     1
290
     0
176
     1
290
     0
176
     1
 90
       50
176
     1
 40
0.0
176
     1
 40
1.0
176
     1
 90
        0
176
     1
 62
    18
420
        0
176
     1
 90
       50
176
     1
 90
        3
176
     1
 62
     5
420
      255
176
     1
290
     0
176
     1
 90
       50
176
     1
 90
       50
176
     1
 90
       50
176
     1
290
     0
176
     1
 90
       50
176
     1
 62
   256
176
     0
 40
1.0
176
     0
 90
        2
176
     1
  1
strokes_ogs.tif
176
     1
290
     0
176
     1
 40
1.0
176
     1
 40
1.0
176
     1
  0
VISUALSTYLE
  5
9E
102
{ACAD_REACTORS
330
99
102
}
330
99
100
AcDbVisualStyle
  2
Basic
 70
     7
177
     3
291
     1
 70
    58
 90
        1
176
     1
 90
        0
176
     1
 90
        1
176
     1
 90
        0
176
     1
 40
-0.6
176
     1
 40
-30.0
176
     1
 62
     7
420
 16777215
176
     1
 90
        0
176
     1
 90
        4
176
     1
 62
     7
176
     1
 62
   257
176
     1
 90
        1
176
     1
 90
        1
176
     1
 40
1.0
176
     1
 90
        8
176
     1
 62
     7
176
     1
 40
1.0
176
     1
 90
        1
176
     1
 90
        6
176
     1
 90
        2
176
     1
 62
     7
176
     1
 90
        5
176
     1
 90
        0
176
     1
 90
        0
176
     1
290
     0
176
     1
 90
        1
176
     1
 40
0.0
176
     1
 90
        0
176
     1
290
     0
176
     1
290
     1
176
     1
290
     1
176
     1
290
     0
176
     1
290
     0
176
     1
290
     0
176
     1
290
     0
176
     1
290
     0
176
     1
290
     0
176
     1
 90
       50
176
     1
 40
0.0
176
     1
 40
1.0
176
     1
 90
        0
176
     1
 62
    18
420
        0
176
     1
 90
       50
176
     1
 90
        3
176
     1
 62
     5
420
      255
176
     1
290
     0
176
     1
 90
       50
176
     1
 90
       50
176
     1
 90
       50
176
     1
290
     0
176
     1
 90
       50
176
     1
 62
   256
176
     0
 40
1.0
176
     0
 90
        2
176
     1
  1
strokes_ogs.tif
176
     1
290
     0
176
     1
 40
1.0
176
     1
 40
1.0
176
     1
  0
VISUALSTYLE
  5
A5
102
{ACAD_REACTORS
330
99
102
}
330
99
100
AcDbVisualStyle
  2
Brighten
 70
    12
177
     3
291
     1
 70
    58
 90
        2
176
     1
 90
        2
176
     1
 90
        1
176
     1
 90
        0
176
     1
 40
-0.6
176
     1
 40
-30.0
176
     1
 62
     7
420
 16777215
176
     1
 90
        1
176
     1
 90
        4
176
     1
 62
     7
176
     1
 62
   257
176
     1
 90
        1
176
     1
 90
        1
176
     1
 40
1.0
176
     1
 90
        8
176
     1
 62
     7
176
     1
 40
1.0
176
     1
 90
        1
176
     1
 90
        6
176
     1
 90
        2
176
     1
 62
     7
176
     1
 90
        5
176
     1
 90
        0
176
     1
 90
        0
176
     1
290
     0
176
     1
 90
        1
176
     1
 40
50.0
176
     1
 90
        0
176
     1
290
     0
176
     1
290
     1
176
     1
290
     1
176
     1
290
     0
176
     1
290
     0
176
     1
290
     0
176
     1
290
     0
176
     1
290
     0
176
     1
290
     0
176
     1
 90
       50
176
     1
 40
0.0
176
     1
 40
1.0
176
     1
 90
        0
176
     1
 62
    18
420
        0
176
     1
 90
       50
176
     1
 90
        3
176
     1
 62
     5
420
      255
176
     1
290
     0
176
     1
 90
       50
176
     1
 90
       50
176
     1
 90
       50
176
     1
290
     0
176
     1
 90
       50
176
     1
 62
   256
176
     0
 40
1.0
176
     0
 90
        2
176
     1
  1
strokes_ogs.tif
176
     1
290
     0
176
     1
 40
1.0
176
     1
 40
1.0
176
     1
  0
VISUALSTYLE
  5
A9
102
{ACAD_REACTORS
330
99
102
}
330
99
100
AcDbVisualStyle
  2
ColorChange
 70
    16
177
     3
291
     1
 70
    58
 90
        2
176
     1
 90
        2
176
     1
 90
        3
176
     1
 90
        0
176
     1
 40
-0.6
176
     1
 40
-30.0
176
     1
 62
     8
420
  8421504
176
     1
 90
        1
176
     1
 90
        4
176
     1
 62
     7
176
     1
 62
   257
176
     1
 90
        1
176
     1
 90
        1
176
     1
 40
1.0
176
     1
 90
        8
176
     1
 62
     8
420
  8421504
176
     1
 40
1.0
176
     1
 90
        1
176
     1
 90
        6
176
     1
 90
        2
176
     1
 62
     7
176
     1
 90
        5
176
     1
 90
        0
176
     1
 90
        0
176
     1
290
     0
176
     1
 90
        1
176
     1
 40
0.0
176
     1
 90
        0
176
     1
290
     0
176
     1
290
     1
176
     1
290
     1
176
     1
290
     0
176
     1
290
     0
176
     1
290
     0
176
     1
290
     0
176
     1
290
     0
176
     1
290
     0
176
     1
 90
       50
176
     1
 40
0.0
176
     1
 40
1.0
176
     1
 90
        0
176
     1
 62
    18
420
        0
176
     1
 90
       50
176
     1
 90
        3
176
     1
 62
     5
420
      255
176
     1
290
     0
176
     1
 90
       50
176
     1
 90
       50
176
     1
 90
       50
176
     1
290
     0
176
     1
 90
       50
176
     1
 62
   256
176
     0
 40
1.0
176
     0
 90
        2
176
     1
  1
strokes_ogs.tif
176
     1
290
     0
176
     1
 40
1.0
176
     1
 40
1.0
176
     1
  0
VISUALSTYLE
  5
A2
102
{ACAD_REACTORS
330
99
102
}
330
99
100
AcDbVisualStyle
  2
Conceptual
 70
     9
177
     3
291
     0
 70
    58
 90
        3
176
     1
 90
        2
176
     1
 90
        1
176
     1
 90
        0
176
     1
 40
-0.6
176
     1
 40
-30.0
176
     1
 62
     7
420
 16777215
176
     1
 90
        2
176
     1
 90
        2
176
     1
 62
     7
176
     1
 62
   257
176
     1
 90
        1
176
     1
 90
        1
176
     1
 40
40.0
176
     1
 90
        8
176
     1
 62
     7
176
     1
 40
1.0
176
     1
 90
        1
176
     1
 90
        6
176
     1
 90
        2
176
     1
 62
     7
176
     1
 90
        3
176
     1
 90
        0
176
     1
 90
        0
176
     1
290
     0
176
     1
 90
        1
176
     1
 40
0.0
176
     1
 90
        0
176
     1
290
     0
176
     1
290
     1
176
     1
290
     1
176
     1
290
     0
176
     1
290
     0
176
     1
290
     0
176
     1
290
     0
176
     1
290
     0
176
     1
290
     0
176
     1
 90
       50
176
     1
 40
0.0
176
     1
 40
1.0
176
     1
 90
        0
176
     1
 62
    18
420
        0
176
     1
 90
       50
176
     1
 90
        3
176
     1
 62
     5
420
      255
176
     1
290
     0
176
     1
 90
       50
176
     1
 90
       50
176
     1
 90
       50
176
     1
290
     0
176
     1
 90
       50
176
     1
 62
   256
176
     0
 40
1.0
176
     0
 90
        2
176
     1
  1
strokes_ogs.tif
176
     1
290
     0
176
     1
 40
1.0
176
     1
 40
1.0
176
     1
  0
VISUALSTYLE
  5
A4
102
{ACAD_REACTORS
330
99
102
}
330
99
100
AcDbVisualStyle
  2
Dim
 70
    11
177
     3
291
     1
 70
    58
 90
        2
176
     1
 90
        2
176
     1
 90
        1
176
     1
 90
        0
176
     1
 40
-0.6
176
     1
 40
-30.0
176
     1
 62
     7
420
 16777215
176
     1
 90
        1
176
     1
 90
        4
176
     1
 62
     7
176
     1
 62
   257
176
     1
 90
        1
176
     1
 90
        1
176
     1
 40
1.0
176
     1
 90
        8
176
     1
 62
     7
176
     1
 40
1.0
176
     1
 90
        1
176
     1
 90
        6
176
     1
 90
        2
176
     1
 62
     7
176
     1
 90
        5
176
     1
 90
        0
176
     1
 90
        0
176
     1
290
     0
176
     1
 90
        1
176
     1
 40
-50.0
176
     1
 90
        0
176
     1
290
     0
176
     1
290
     1
176
     1
290
     1
176
     1
290
     0
176
     1
290
     0
176
     1
290
     0
176
     1
290
     0
176
     1
290
     0
176
     1
290
     0
176
     1
 90
       50
176
     1
 40
0.0
176
     1
 40
1.0
176
     1
 90
        0
176
     1
 62
    18
420
        0
176
     1
 90
       50
176
     1
 90
        3
176
     1
 62
     5
420
      255
176
     1
290
     0
176
     1
 90
       50
176
     1
 90
       50
176
     1
 90
       50
176
     1
290
     0
176
     1
 90
       50
176
     1
 62
   256
176
     0
 40
1.0
176
     0
 90
        2
176
     1
  1
strokes_ogs.tif
176
     1
290
     0
176
     1
 40
1.0
176
     1
 40
1.0
176
     1
  0
VISUALSTYLE
  5
E7
102
{ACAD_REACTORS
330
99
102
}
330
99
100
AcDbVisualStyle
  2
EdgeColorOff
 70
    22
177
     3
291
     1
 70
    58
 90
        2
176
     0
 90
        2
176
     0
 90
        0
176
     0
 90
        0
176
     0
 40
0.6
176
     0
 40
30.0
176
     0
 62
     7
420
 16777215
176
     0
 90
        1
176
     0
 90
        4
176
     0
 62
     7
176
     0
 62
   257
176
     0
 90
        1
176
     0
 90
        1
176
     0
 40
1.0
176
     0
 90
        8
176
     2
 62
     7
176
     0
 40
1.0
176
     0
 90
        1
176
     0
 90
        6
176
     0
 90
        2
176
     0
 62
     7
176
     0
 90
        5
176
     0
 90
        0
176
     0
 90
        0
176
     0
290
     0
176
     0
 90
        1
176
     0
 40
0.0
176
     0
 90
        0
176
     0
290
     0
176
     0
290
     1
176
     0
290
     1
176
     0
290
     0
176
     0
290
     0
176
     0
290
     0
176
     0
290
     0
176
     0
290
     0
176
     0
290
     0
176
     0
 90
       50
176
     0
 40
0.0
176
     0
 40
1.0
176
     0
 90
        0
176
     0
 62
    18
420
        0
176
     0
 90
       50
176
     0
 90
        3
176
     0
 62
     5
420
      255
176
     0
290
     0
176
     0
 90
       50
176
     0
 90
       50
176
     0
 90
       50
176
     0
290
     0
176
     0
 90
       50
176
     0
 62
   256
176
     0
 40
1.0
176
     0
 90
        2
176
     0
  1
strokes_ogs.tif
176
     0
290
     0
176
     0
 40
1.0
176
     0
 40
1.0
176
     0
  0
VISUALSTYLE
  5
A8
102
{ACAD_REACTORS
330
99
102
}
330
99
100
AcDbVisualStyle
  2
Facepattern
 70
    15
177
     3
291
     1
 70
    58
 90
        2
176
     1
 90
        2
176
     1
 90
        1
176
     1
 90
        0
176
     1
 40
-0.6
176
     1
 40
-30.0
176
     1
 62
     7
420
 16777215
176
     1
 90
        1
176
     1
 90
        4
176
     1
 62
     7
176
     1
 62
   257
176
     1
 90
        1
176
     1
 90
        1
176
     1
 40
1.0
176
     1
 90
        8
176
     1
 62
     7
176
     1
 40
1.0
176
     1
 90
        1
176
     1
 90
        6
176
     1
 90
        2
176
     1
 62
     7
176
     1
 90
        5
176
     1
 90
        0
176
     1
 90
        0
176
     1
290
     0
176
     1
 90
        1
176
     1
 40
0.0
176
     1
 90
        0
176
     1
290
     0
176
     1
290
     1
176
     1
290
     1
176
     1
290
     0
176
     1
290
     0
176
     1
290
     0
176
     1
290
     0
176
     1
290
     0
176
     1
290
     0
176
     1
 90
       50
176
     1
 40
0.0
176
     1
 40
1.0
176
     1
 90
        0
176
     1
 62
    18
420
        0
176
     1
 90
       50
176
     1
 90
        3
176
     1
 62
     5
420
      255
176
     1
290
     0
176
     1
 90
       50
176
     1
 90
       50
176
     1
 90
       50
176
     1
290
     0
176
     1
 90
       50
176
     1
 62
   256
176
     0
 40
1.0
176
     0
 90
        2
176
     1
  1
strokes_ogs.tif
176
     1
290
     0
176
     1
 40
1.0
176
     1
 40
1.0
176
     1
  0
VISUALSTYLE
  5
9A
102
{ACAD_REACTORS
330
99
102
}
330
99
100
AcDbVisualStyle
  2
Flat
 70
     0
177
     3
291
     1
 70
    58
 90
        2
176
     1
 90
        1
176
     1
 90
        1
176
     1
 90
        2
176
     1
 40
-0.6
176
     1
 40
30.0
176
     1
 62
     7
420
 16777215
176
     1
 90
        0
176
     1
 90
        4
176
     1
 62
     7
176
     1
 62
   257
176
     1
 90
        1
176
     1
 90
        1
176
     1
 40
1.0
176
     1
 90
        8
176
     1
 62
     7
176
     1
 40
1.0
176
     1
 90
        1
176
     1
 90
        6
176
     1
 90
        2
176
     1
 62
     7
176
     1
 90
        5
176
     1
 90
        0
176
     1
 90
        0
176
     1
290
     0
176
     1
 90
        1
176
     1
 40
0.0
176
     1
 90
        0
176
     1
290
     0
176
     1
290
     1
176
     1
290
     1
176
     1
290
     0
176
     1
290
     0
176
     1
290
     0
176
     1
290
     0
176
     1
290
     0
176
     1
290
     0
176
     1
 90
       50
176
     1
 40
0.0
176
     1
 40
1.0
176
     1
 90
        0
176
     1
 62
    18
420
        0
176
     1
 90
       50
176
     1
 90
        3
176
     1
 62
     5
420
      255
176
     1
290
     0
176
     1
 90
       50
176
     1
 90
       50
176
     1
 90
       50
176
     1
290
     0
176
     1
 90
       50
176
     1
 62
   256
176
     0
 40
1.0
176
     0
 90
        2
176
     1
  1
strokes_ogs.tif
176
     1
290
     0
176
     1
 40
1.0
176
     1
 40
1.0
176
     1
  0
VISUALSTYLE
  5
9B
102
{ACAD_REACTORS
330
99
102
}
330
99
100
AcDbVisualStyle
  2
FlatWithEdges
 70
     1
177
     3
291
     1
 70
    58
 90
        2
176
     1
 90
        1
176
     1
 90
        1
176
     1
 90
        2
176
     1
 40
-0.6
176
     1
 40
30.0
176
     1
 62
     7
420
 16777215
176
     1
 90
        1
176
     1
 90
        4
176
     1
 62
     7
176
     1
 62
   257
176
     1
 90
        1
176
     1
 90
        1
176
     1
 40
1.0
176
     1
 90
        0
176
     1
 62
   257
176
     1
 40
1.0
176
     1
 90
        1
176
     1
 90
        6
176
     1
 90
        2
176
     1
 62
     7
176
     1
 90
        5
176
     1
 90
        0
176
     1
 90
        0
176
     1
290
     0
176
     1
 90
        1
176
     1
 40
0.0
176
     1
 90
        0
176
     1
290
     0
176
     1
290
     1
176
     1
290
     1
176
     1
290
     0
176
     1
290
     0
176
     1
290
     0
176
     1
290
     0
176
     1
290
     0
176
     1
290
     0
176
     1
 90
       50
176
     1
 40
0.0
176
     1
 40
1.0
176
     1
 90
        0
176
     1
 62
    18
420
        0
176
     1
 90
       50
176
     1
 90
        3
176
     1
 62
     5
420
      255
176
     1
290
     0
176
     1
 90
       50
176
     1
 90
       50
176
     1
 90
       50
176
     1
290
     0
176
     1
 90
       50
176
     1
 62
   256
176
     0
 40
1.0
176
     0
 90
        2
176
     1
  1
strokes_ogs.tif
176
     1
290
     0
176
     1
 40
1.0
176
     1
 40
1.0
176
     1
  0
VISUALSTYLE
  5
9C
102
{ACAD_REACTORS
330
99
102
}
330
99
100
AcDbVisualStyle
  2
Gouraud
 70
     2
177
     3
291
     1
 70
    58
 90
        2
176
     1
 90
        2
176
     1
 90
        1
176
     1
 90
        2
176
     1
 40
-0.6
176
     1
 40
30.0
176
     1
 62
     7
420
 16777215
176
     1
 90
        0
176
     1
 90
        4
176
     1
 62
     7
176
     1
 62
   257
176
     1
 90
        1
176
     1
 90
        1
176
     1
 40
1.0
176
     1
 90
        0
176
     1
 62
     7
176
     1
 40
1.0
176
     1
 90
        1
176
     1
 90
        6
176
     1
 90
        2
176
     1
 62
     7
176
     1
 90
        5
176
     1
 90
        0
176
     1
 90
        0
176
     1
290
     0
176
     1
 90
        1
176
     1
 40
0.0
176
     1
 90
        0
176
     1
290
     0
176
     1
290
     1
176
     1
290
     1
176
     1
290
     0
176
     1
290
     0
176
     1
290
     0
176
     1
290
     0
176
     1
290
     0
176
     1
290
     0
176
     1
 90
       50
176
     1
 40
0.0
176
     1
 40
1.0
176
     1
 90
        0
176
     1
 62
    18
420
        0
176
     1
 90
       50
176
     1
 90
        3
176
     1
 62
     5
420
      255
176
     1
290
     0
176
     1
 90
       50
176
     1
 90
       50
176
     1
 90
       50
176
     1
290
     0
176
     1
 90
       50
176
     1
 62
   256
176
     0
 40
1.0
176
     0
 90
        2
176
     1
  1
strokes_ogs.tif
176
     1
290
     0
176
     1
 40
1.0
176
     1
 40
1.0
176
     1
  0
VISUALSTYLE
  5
9D
102
{ACAD_REACTORS
330
99
102
}
330
99
100
AcDbVisualStyle
  2
GouraudWithEdges
 70
     3
177
     3
291
     1
 70
    58
 90
        2
176
     1
 90
        2
176
     1
 90
        1
176
     1
 90
        2
176
     1
 40
-0.6
176
     1
 40
30.0
176
     1
 62
     7
420
 16777215
176
     1
 90
        1
176
     1
 90
        4
176
     1
 62
     7
176
     1
 62
   257
176
     1
 90
        1
176
     1
 90
        1
176
     1
 40
1.0
176
     1
 90
        0
176
     1
 62
   257
176
     1
 40
1.0
176
     1
 90
        1
176
     1
 90
        6
176
     1
 90
        2
176
     1
 62
     7
176
     1
 90
        5
176
     1
 90
        0
176
     1
 90
        0
176
     1
290
     0
176
     1
 90
        1
176
     1
 40
0.0
176
     1
 90
        0
176
     1
290
     0
176
     1
290
     1
176
     1
290
     1
176
     1
290
     0
176
     1
290
     0
176
     1
290
     0
176
     1
290
     0
176
     1
290
     0
176
     1
290
     0
176
     1
 90
       50
176
     1
 40
0.0
176
     1
 40
1.0
176
     1
 90
        0
176
     1
 62
    18
420
        0
176
     1
 90
       50
176
     1
 90
        3
176
     1
 62
     5
420
      255
176
     1
290
     0
176
     1
 90
       50
176
     1
 90
       50
176
     1
 90
       50
176
     1
290
     0
176
     1
 90
       50
176
     1
 62
   256
176
     0
 40
1.0
176
     0
 90
        2
176
     1
  1
strokes_ogs.tif
176
     1
290
     0
176
     1
 40
1.0
176
     1
 40
1.0
176
     1
  0
VISUALSTYLE
  5
E4
102
{ACAD_REACTORS
330
99
102
}
330
99
100
AcDbVisualStyle
  2
Hidden
 70
     6
177
     3
291
     0
 70
    58
 90
        1
176
     1
 90
        2
176
     1
 90
        2
176
     1
 90
        0
176
     1
 40
0.6
176
     1
 40
30.0
176
     1
 62
     7
420
 16777215
176
     1
 90
        2
176
     1
 90
        2
176
     1
 62
     7
176
     1
 62
   257
176
     1
 90
        2
176
     1
 90
        1
176
     1
 40
40.0
176
     1
 90
        0
176
     1
 62
   257
176
     1
 40
1.0
176
     1
 90
        1
176
     1
 90
        6
176
     1
 90
        2
176
     1
 62
     7
176
     1
 90
        3
176
     1
 90
        0
176
     1
 90
        0
176
     1
290
     0
176
     1
 90
        1
176
     1
 40
0.0
176
     1
 90
        0
176
     1
290
     0
176
     1
290
     1
176
     1
290
     1
176
     1
290
     0
176
     1
290
     0
176
     1
290
     0
176
     1
290
     0
176
     1
290
     0
176
     1
290
     0
176
     1
 90
       50
176
     1
 40
0.0
176
     1
 40
1.0
176
     1
 90
        0
176
     1
 62
    18
420
        0
176
     1
 90
       50
176
     1
 90
        3
176
     1
 62
     5
420
      255
176
     1
290
     0
176
     1
 90
       50
176
     1
 90
       50
176
     1
 90
       50
176
     1
290
     0
176
     1
 90
       50
176
     1
 62
   256
176
     0
 40
1.0
176
     0
 90
        2
176
     1
  1
strokes_ogs.tif
176
     1
290
     0
176
     1
 40
1.0
176
     1
 40
1.0
176
     1
  0
VISUALSTYLE
  5
E5
102
{ACAD_REACTORS
330
99
102
}
330
99
100
AcDbVisualStyle
  2
JitterOff
 70
    20
177
     3
291
     1
 70
    58
 90
        2
176
     0
 90
        2
176
     0
 90
        0
176
     0
 90
        0
176
     0
 40
0.6
176
     0
 40
30.0
176
     0
 62
     7
420
 16777215
176
     0
 90
        1
176
     0
 90
        4
176
     0
 62
     7
176
     0
 62
   257
176
     0
 90
        1
176
     0
 90
        1
176
     0
 40
1.0
176
     0
 90
       10
176
     2
 62
     7
176
     0
 40
1.0
176
     0
 90
        1
176
     0
 90
        6
176
     0
 90
        2
176
     0
 62
     7
176
     0
 90
        5
176
     0
 90
        0
176
     0
 90
        0
176
     0
290
     0
176
     0
 90
        1
176
     0
 40
0.0
176
     0
 90
        0
176
     0
290
     0
176
     0
290
     1
176
     0
290
     1
176
     0
290
     0
176
     0
290
     0
176
     0
290
     0
176
     0
290
     0
176
     0
290
     0
176
     0
290
     0
176
     0
 90
       50
176
     0
 40
0.0
176
     0
 40
1.0
176
     0
 90
        0
176
     0
 62
    18
420
        0
176
     0
 90
       50
176
     0
 90
        3
176
     0
 62
     5
420
      255
176
     0
290
     0
176
     0
 90
       50
176
     0
 90
       50
176
     0
 90
       50
176
     0
290
     0
176
     0
 90
       50
176
     0
 62
   256
176
     0
 40
1.0
176
     0
 90
        2
176
     0
  1
strokes_ogs.tif
176
     0
290
     0
176
     0
 40
1.0
176
     0
 40
1.0
176
     0
  0
VISUALSTYLE
  5
A7
102
{ACAD_REACTORS
330
99
102
}
330
99
100
AcDbVisualStyle
  2
Linepattern
 70
    14
177
     3
291
     1
 70
    58
 90
        2
176
     1
 90
        2
176
     1
 90
        1
176
     1
 90
        0
176
     1
 40
-0.6
176
     1
 40
-30.0
176
     1
 62
     7
420
 16777215
176
     1
 90
        1
176
     1
 90
        4
176
     1
 62
     7
176
     1
 62
   257
176
     1
 90
        7
176
     1
 90
        7
176
     1
 40
1.0
176
     1
 90
        8
176
     1
 62
     7
176
     1
 40
1.0
176
     1
 90
        1
176
     1
 90
        6
176
     1
 90
        2
176
     1
 62
     7
176
     1
 90
        5
176
     1
 90
        0
176
     1
 90
        0
176
     1
290
     0
176
     1
 90
        1
176
     1
 40
0.0
176
     1
 90
        0
176
     1
290
     0
176
     1
290
     1
176
     1
290
     1
176
     1
290
     0
176
     1
290
     0
176
     1
290
     0
176
     1
290
     0
176
     1
290
     0
176
     1
290
     0
176
     1
 90
       50
176
     1
 40
0.0
176
     1
 40
1.0
176
     1
 90
        0
176
     1
 62
    18
420
        0
176
     1
 90
       50
176
     1
 90
        3
176
     1
 62
     5
420
      255
176
     1
290
     0
176
     1
 90
       50
176
     1
 90
       50
176
     1
 90
       50
176
     1
290
     0
176
     1
 90
       50
176
     1
 62
   256
176
     0
 40
1.0
176
     0
 90
        2
176
     1
  1
strokes_ogs.tif
176
     1
290
     0
176
     1
 40
1.0
176
     1
 40
1.0
176
     1
  0
VISUALSTYLE
  5
E6
102
{ACAD_REACTORS
330
99
102
}
330
99
100
AcDbVisualStyle
  2
OverhangOff
 70
    21
177
     3
291
     1
 70
    58
 90
        2
176
     0
 90
        2
176
     0
 90
        0
176
     0
 90
        0
176
     0
 40
0.6
176
     0
 40
30.0
176
     0
 62
     7
420
 16777215
176
     0
 90
        1
176
     0
 90
        4
176
     0
 62
     7
176
     0
 62
   257
176
     0
 90
        1
176
     0
 90
        1
176
     0
 40
1.0
176
     0
 90
        9
176
     2
 62
     7
176
     0
 40
1.0
176
     0
 90
        1
176
     0
 90
        6
176
     0
 90
        2
176
     0
 62
     7
176
     0
 90
        5
176
     0
 90
        0
176
     0
 90
        0
176
     0
290
     0
176
     0
 90
        1
176
     0
 40
0.0
176
     0
 90
        0
176
     0
290
     0
176
     0
290
     1
176
     0
290
     1
176
     0
290
     0
176
     0
290
     0
176
     0
290
     0
176
     0
290
     0
176
     0
290
     0
176
     0
290
     0
176
     0
 90
       50
176
     0
 40
0.0
176
     0
 40
1.0
176
     0
 90
        0
176
     0
 62
    18
420
        0
176
     0
 90
       50
176
     0
 90
        3
176
     0
 62
     5
420
      255
176
     0
290
     0
176
     0
 90
       50
176
     0
 90
       50
176
     0
 90
       50
176
     0
290
     0
176
     0
 90
       50
176
     0
 62
   256
176
     0
 40
1.0
176
     0
 90
        2
176
     0
  1
strokes_ogs.tif
176
     0
290
     0
176
     0
 40
1.0
176
     0
 40
1.0
176
     0
  0
VISUALSTYLE
  5
A3
102
{ACAD_REACTORS
330
99
102
}
330
99
100
AcDbVisualStyle
  2
Realistic
 70
     8
177
     3
291
     0
 70
    58
 90
        2
176
     1
 90
        2
176
     1
 90
        1
176
     1
 90
        0
176
     1
 40
-0.6
176
     1
 40
-30.0
176
     1
 62
     7
420
 16777215
176
     1
 90
        1
176
     1
 90
        0
176
     1
 62
     7
176
     1
 62
   257
176
     1
 90
        1
176
     1
 90
        1
176
     1
 40
1.0
176
     1
 90
        8
176
     1
 62
     8
420
  7895160
176
     1
 40
1.0
176
     1
 90
        1
176
     1
 90
        6
176
     1
 90
        2
176
     1
 62
     7
176
     1
 90
        5
176
     1
 90
        0
176
     1
 90
        0
176
     1
290
     0
176
     1
 90
       13
176
     1
 40
0.0
176
     1
 90
        0
176
     1
290
     0
176
     1
290
     1
176
     1
290
     1
176
     1
290
     0
176
     1
290
     0
176
     1
290
     0
176
     1
290
     0
176
     1
290
     0
176
     1
290
     0
176
     1
 90
       50
176
     1
 40
0.0
176
     1
 40
1.0
176
     1
 90
        0
176
     1
 62
    18
420
        0
176
     1
 90
       50
176
     1
 90
        3
176
     1
 62
     5
420
      255
176
     1
290
     0
176
     1
 90
       50
176
     1
 90
       50
176
     1
 90
       50
176
     1
290
     0
176
     1
 90
       50
176
     1
 62
   256
176
     0
 40
1.0
176
     0
 90
        2
176
     1
  1
strokes_ogs.tif
176
     1
290
     0
176
     1
 40
1.0
176
     1
 40
1.0
176
     1
  0
VISUALSTYLE
  5
EC
102
{ACAD_REACTORS
330
99
102
}
330
99
100
AcDbVisualStyle
  2
Shaded
 70
    27
177
     3
291
     0
 70
    58
 90
        2
176
     1
 90
        2
176
     1
 90
        1
176
     1
 90
        2
176
     1
 40
0.6
176
     1
 40
30.0
176
     1
 62
     7
420
 16777215
176
     1
 90
        0
176
     1
 90
        4
176
     1
 62
     7
176
     1
 62
   257
176
     1
 90
        1
176
     1
 90
        1
176
     1
 40
1.0
176
     1
 90
        8
176
     1
 62
   257
176
     1
 40
1.0
176
     1
 90
        1
176
     1
 90
        6
176
     1
 90
        2
176
     1
 62
     8
420
  7895160
176
     1
 90
        3
176
     1
 90
        0
176
     1
 90
        0
176
     1
290
     0
176
     1
 90
        5
176
     1
 40
0.0
176
     1
 90
        0
176
     1
290
     0
176
     1
290
     1
176
     1
290
     1
176
     1
290
     0
176
     1
290
     0
176
     1
290
     0
176
     1
290
     0
176
     1
290
     0
176
     1
290
     0
176
     1
 90
       50
176
     1
 40
0.0
176
     1
 40
1.0
176
     1
 90
        0
176
     1
 62
    18
420
        0
176
     1
 90
       50
176
     1
 90
        3
176
     1
 62
     5
420
      255
176
     1
290
     0
176
     1
 90
       50
176
     1
 90
       50
176
     1
 90
       50
176
     1
290
     0
176
     1
 90
       50
176
     1
 62
   256
176
     0
 40
1.0
176
     0
 90
        2
176
     1
  1
strokes_ogs.tif
176
     1
290
     0
176
     1
 40
1.0
176
     1
 40
1.0
176
     1
  0
VISUALSTYLE
  5
EB
102
{ACAD_REACTORS
330
99
102
}
330
99
100
AcDbVisualStyle
  2
Shaded with edges
 70
    26
177
     3
291
     0
 70
    58
 90
        2
176
     1
 90
        2
176
     1
 90
        1
176
     1
 90
        2
176
     1
 40
0.6
176
     1
 40
30.0
176
     1
 62
     7
420
 16777215
176
     1
 90
        1
176
     1
 90
       10
176
     1
 62
     7
176
     1
 62
   257
176
     1
 90
        2
176
     1
 90
        1
176
     1
 40
1.0
176
     1
 90
        8
176
     1
 62
   257
176
     1
 40
1.0
176
     1
 90
        1
176
     1
 90
        6
176
     1
 90
        2
176
     1
 62
     7
176
     1
 90
        3
176
     1
 90
        0
176
     1
 90
        0
176
     1
290
     0
176
     1
 90
        5
176
     1
 40
0.0
176
     1
 90
        0
176
     1
290
     0
176
     1
290
     1
176
     1
290
     1
176
     1
290
     0
176
     1
290
     0
176
     1
290
     0
176
     1
290
     0
176
     1
290
     0
176
     1
290
     0
176
     1
 90
       50
176
     1
 40
0.0
176
     1
 40
1.0
176
     1
 90
        0
176
     1
 62
    18
420
        0
176
     1
 90
       50
176
     1
 90
        3
176
     1
 62
     5
420
      255
176
     1
290
     0
176
     1
 90
       50
176
     1
 90
       50
176
     1
 90
       50
176
     1
290
     0
176
     1
 90
       50
176
     1
 62
   256
176
     0
 40
1.0
176
     0
 90
        2
176
     1
  1
strokes_ogs.tif
176
     1
290
     0
176
     1
 40
1.0
176
     1
 40
1.0
176
     1
  0
VISUALSTYLE
  5
E8
102
{ACAD_REACTORS
330
99
102
}
330
99
100
AcDbVisualStyle
  2
Shades of Gray
 70
    23
177
     3
291
     0
 70
    58
 90
        2
176
     1
 90
        2
176
     1
 90
        3
176
     1
 90
        0
176
     1
 40
0.6
176
     1
 40
30.0
176
     1
 62
     7
420
 16777215
176
     1
 90
        2
176
     1
 90
        2
176
     1
 62
     7
176
     1
 62
     7
176
     1
 90
        1
176
     1
 90
        1
176
     1
 40
40.0
176
     1
 90
        8
176
     1
 62
     7
176
     1
 40
1.0
176
     1
 90
        1
176
     1
 90
        6
176
     1
 90
        2
176
     1
 62
     7
176
     1
 90
        3
176
     1
 90
        0
176
     1
 90
        0
176
     1
290
     0
176
     1
 90
        1
176
     1
 40
0.0
176
     1
 90
        0
176
     1
290
     0
176
     1
290
     1
176
     1
290
     1
176
     1
290
     0
176
     1
290
     0
176
     1
290
     0
176
     1
290
     0
176
     1
290
     0
176
     1
290
     0
176
     1
 90
       50
176
     1
 40
0.0
176
     1
 40
1.0
176
     1
 90
        0
176
     1
 62
    18
420
        0
176
     1
 90
       50
176
     1
 90
        3
176
     1
 62
     5
420
      255
176
     1
290
     0
176
     1
 90
       50
176
     1
 90
       50
176
     1
 90
       50
176
     1
290
     0
176
     1
 90
       50
176
     1
 62
   256
176
     0
 40
1.0
176
     0
 90
        2
176
     1
  1
strokes_ogs.tif
176
     1
290
     0
176
     1
 40
1.0
176
     1
 40
1.0
176
     1
  0
VISUALSTYLE
  5
E9
102
{ACAD_REACTORS
330
99
102
}
330
99
100
AcDbVisualStyle
  2
Sketchy
 70
    24
177
     3
291
     0
 70
    58
 90
        1
176
     1
 90
        2
176
     1
 90
        2
176
     1
 90
        0
176
     1
 40
0.6
176
     1
 40
30.0
176
     1
 62
     7
420
 16777215
176
     1
 90
        2
176
     1
 90
        2
176
     1
 62
     7
176
     1
 62
     7
176
     1
 90
        1
176
     1
 90
        1
176
     1
 40
40.0
176
     1
 90
       11
176
     1
 62
     7
176
     1
 40
1.0
176
     1
 90
        1
176
     1
 90
        6
176
     1
 90
        2
176
     1
 62
     7
176
     1
 90
        6
176
     1
 90
        0
176
     1
 90
        0
176
     1
290
     0
176
     1
 90
        1
176
     1
 40
0.0
176
     1
 90
        0
176
     1
290
     0
176
     1
290
     1
176
     1
290
     1
176
     1
290
     0
176
     1
290
     0
176
     1
290
     0
176
     1
290
     0
176
     1
290
     0
176
     1
290
     0
176
     1
 90
       50
176
     1
 40
0.0
176
     1
 40
1.0
176
     1
 90
        0
176
     1
 62
    18
420
        0
176
     1
 90
       50
176
     1
 90
        3
176
     1
 62
     5
420
      255
176
     1
290
     0
176
     1
 90
       50
176
     1
 90
       50
176
     1
 90
       50
176
     1
290
     0
176
     1
 90
       50
176
     1
 62
   256
176
     0
 40
1.0
176
     0
 90
        2
176
     1
  1
strokes_ogs.tif
176
     1
290
     0
176
     1
 40
1.0
176
     1
 40
1.0
176
     1
  0
VISUALSTYLE
  5
A6
102
{ACAD_REACTORS
330
99
102
}
330
99
100
AcDbVisualStyle
  2
Thicken
 70
    13
177
     3
291
     1
 70
    58
 90
        2
176
     1
 90
        2
176
     1
 90
        1
176
     1
 90
        0
176
     1
 40
-0.6
176
     1
 40
-30.0
176
     1
 62
     7
420
 16777215
176
     1
 90
        1
176
     1
 90
        4
176
     1
 62
     7
176
     1
 62
   257
176
     1
 90
        1
176
     1
 90
        1
176
     1
 40
1.0
176
     1
 90
       12
176
     1
 62
     7
176
     1
 40
1.0
176
     1
 90
        1
176
     1
 90
        6
176
     1
 90
        2
176
     1
 62
     7
176
     1
 90
        5
176
     1
 90
        0
176
     1
 90
        0
176
     1
290
     0
176
     1
 90
        1
176
     1
 40
0.0
176
     1
 90
        0
176
     1
290
     0
176
     1
290
     1
176
     1
290
     1
176
     1
290
     0
176
     1
290
     0
176
     1
290
     0
176
     1
290
     0
176
     1
290
     0
176
     1
290
     0
176
     1
 90
       50
176
     1
 40
0.0
176
     1
 40
1.0
176
     1
 90
        0
176
     1
 62
    18
420
        0
176
     1
 90
       50
176
     1
 90
        3
176
     1
 62
     5
420
      255
176
     1
290
     0
176
     1
 90
       50
176
     1
 90
       50
176
     1
 90
       50
176
     1
290
     0
176
     1
 90
       50
176
     1
 62
   256
176
     0
 40
1.0
176
     0
 90
        2
176
     1
  1
strokes_ogs.tif
176
     1
290
     0
176
     1
 40
1.0
176
     1
 40
1.0
176
     1
  0
VISUALSTYLE
  5
E3
102
{ACAD_REACTORS
330
99
102
}
330
99
100
AcDbVisualStyle
  2
Wireframe
 70
     5
177
     3
291
     0
 70
    58
 90
        0
176
     1
 90
        2
176
     1
 90
        0
176
     1
 90
        0
176
     1
 40
0.6
176
     1
 40
30.0
176
     1
 62
     7
420
 16777215
176
     1
 90
        1
176
     1
 90
        4
176
     1
 62
     7
176
     1
 62
   257
176
     1
 90
        1
176
     1
 90
        1
176
     1
 40
1.0
176
     1
 90
        0
176
     1
 62
   257
176
     1
 40
1.0
176
     1
 90
        1
176
     1
 90
        6
176
     1
 90
        2
176
     1
 62
     7
176
     1
 90
        3
176
     1
 90
        0
176
     1
 90
        0
176
     1
290
     0
176
     1
 90
        1
176
     1
 40
0.0
176
     1
 90
        0
176
     1
290
     0
176
     1
290
     1
176
     1
290
     1
176
     1
290
     0
176
     1
290
     0
176
     1
290
     0
176
     1
290
     0
176
     1
290
     0
176
     1
290
     0
176
     1
 90
       50
176
     1
 40
0.0
176
     1
 40
1.0
176
     1
 90
        0
176
     1
 62
    18
420
        0
176
     1
 90
       50
176
     1
 90
        3
176
     1
 62
     5
420
      255
176
     1
290
     0
176
     1
 90
       50
176
     1
 90
       50
176
     1
 90
       50
176
     1
290
     0
176
     1
 90
       50
176
     1
 62
   256
176
     0
 40
1.0
176
     0
 90
        2
176
     1
  1
strokes_ogs.tif
176
     1
290
     0
176
     1
 40
1.0
176
     1
 40
1.0
176
     1
  0
VISUALSTYLE
  5
EA
102
{ACAD_REACTORS
330
99
102
}
330
99
100
AcDbVisualStyle
  2
X-Ray
 70
    25
177
     3
291
     0
 70
    58
 90
        2
176
     1
 90
        2
176
     1
 90
        1
176
     1
 90
        1
176
     1
 40
0.5
176
     1
 40
30.0
176
     1
 62
     7
420
 16777215
176
     1
 90
        1
176
     1
 90
        0
176
     1
 62
     7
176
     1
 62
   257
176
     1
 90
        1
176
     1
 90
        1
176
     1
 40
1.0
176
     1
 90
        8
176
     1
 62
     7
176
     1
 40
1.0
176
     1
 90
        1
176
     1
 90
        6
176
     1
 90
        2
176
     1
 62
     7
176
     1
 90
        3
176
     1
 90
        0
176
     1
 90
        0
176
     1
290
     0
176
     1
 90
       13
176
     1
 40
0.0
176
     1
 90
        0
176
     1
290
     0
176
     1
290
     1
176
     1
290
     1
176
     1
290
     0
176
     1
290
     0
176
     1
290
     0
176
     1
290
     0
176
     1
290
     0
176
     1
290
     0
176
     1
 90
       50
176
     1
 40
0.0
176
     1
 40
1.0
176
     1
 90
        0
176
     1
 62
    18
420
        0
176
     1
 90
       50
176
     1
 90
        3
176
     1
 62
     5
420
      255
176
     1
290
     0
176
     1
 90
       50
176
     1
 90
       50
176
     1
 90
       50
176
     1
290
     0
176
     1
 90
       50
176
     1
 62
   256
176
     0
 40
1.0
176
     0
 90
        2
176
     1
  1
strokes_ogs.tif
176
     1
290
     0
176
     1
 40
1.0
176
     1
 40
1.0
176
     1
  0
DICTIONARYVAR
  5
D8
102
{ACAD_REACTORS
330
66
102
}
330
66
100
DictionaryVariables
280
     0
  1
1:1
  0
DICTIONARYVAR
  5
89
102
{ACAD_REACTORS
330
66
102
}
330
66
100
DictionaryVariables
280
     0
  1
Standard
  0
DICTIONARYVAR
  5
67
102
{ACAD_REACTORS
330
66
102
}
330
66
100
DictionaryVariables
280
     0
  1
2
  0
DICTIONARYVAR
  5
6B
102
{ACAD_REACTORS
330
66
102
}
330
66
100
DictionaryVariables
280
     0
  1
1
  0
DICTIONARYVAR
  5
124
102
{ACAD_REACTORS
330
66
102
}
330
66
100
DictionaryVariables
280
     0
  1
ByLayer
  0
DICTIONARYVAR
  5
DF
102
{ACAD_REACTORS
330
66
102
}
330
66
100
DictionaryVariables
280
     0
  1
0
  0
DICTIONARYVAR
  5
E0
102
{ACAD_REACTORS
330
66
102
}
330
66
100
DictionaryVariables
280
     0
  1
0
  0
DICTIONARY
  5
AAC
330
87
100
AcDbDictionary
280
     1
281
     1
  3
ACAD_ROUNDTRIP_2008_TABLESTYLE_CELLSTYLEMAP
360
AAD
  0
CELLSTYLEMAP
  5
AAD
102
{ACAD_REACTORS
330
AAC
102
}
330
AAC
100
AcDbCellStyleMap
 90
        3
300
CELLSTYLE
  1
TABLEFORMAT_BEGIN
 90
        5
170
     1
 91
        0
 92
    32768
 62
   257
 93
        1
300
CONTENTFORMAT
  1
CONTENTFORMAT_BEGIN
 90
        0
 91
        0
 92
      512
 93
        0
300

 40
0.0
140
1.0
 94
        5
 62
     0
340
11
144
0.25
309
CONTENTFORMAT_END
171
     0
 94
        6
 95
        1
302
GRIDFORMAT
  1
GRIDFORMAT_BEGIN
 90
        0
 91
        1
 62
     0
 92
       -2
340
0
 93
        0
 40
0.045
309
GRIDFORMAT_END
 95
        2
302
GRIDFORMAT
  1
GRIDFORMAT_BEGIN
 90
        0
 91
        1
 62
     0
 92
       -2
340
0
 93
        0
 40
0.045
309
GRIDFORMAT_END
 95
        4
302
GRIDFORMAT
  1
GRIDFORMAT_BEGIN
 90
        0
 91
        1
 62
     0
 92
       -2
340
0
 93
        0
 40
0.045
309
GRIDFORMAT_END
 95
        8
302
GRIDFORMAT
  1
GRIDFORMAT_BEGIN
 90
        0
 91
        1
 62
     0
 92
       -2
340
0
 93
        0
 40
0.045
309
GRIDFORMAT_END
 95
       16
302
GRIDFORMAT
  1
GRIDFORMAT_BEGIN
 90
        0
 91
        1
 62
     0
 92
       -2
340
0
 93
        0
 40
0.045
309
GRIDFORMAT_END
 95
       32
302
GRIDFORMAT
  1
GRIDFORMAT_BEGIN
 90
        0
 91
        1
 62
     0
 92
       -2
340
0
 93
        0
 40
0.045
309
GRIDFORMAT_END
309
TABLEFORMAT_END
  1
CELLSTYLE_BEGIN
 90
        1
 91
        1
300
_TITLE
309
CELLSTYLE_END
300
CELLSTYLE
  1
TABLEFORMAT_BEGIN
 90
        5
170
     1
 91
        0
 92
        0
 62
   257
 93
        1
300
CONTENTFORMAT
  1
CONTENTFORMAT_BEGIN
 90
        0
 91
        0
 92
      512
 93
        0
300

 40
0.0
140
1.0
 94
        5
 62
     0
340
11
144
0.18
309
CONTENTFORMAT_END
171
     0
 94
        6
 95
        1
302
GRIDFORMAT
  1
GRIDFORMAT_BEGIN
 90
        0
 91
        1
 62
     0
 92
       -2
340
0
 93
        0
 40
0.045
309
GRIDFORMAT_END
 95
        2
302
GRIDFORMAT
  1
GRIDFORMAT_BEGIN
 90
        0
 91
        1
 62
     0
 92
       -2
340
0
 93
        0
 40
0.045
309
GRIDFORMAT_END
 95
        4
302
GRIDFORMAT
  1
GRIDFORMAT_BEGIN
 90
        0
 91
        1
 62
     0
 92
       -2
340
0
 93
        0
 40
0.045
309
GRIDFORMAT_END
 95
        8
302
GRIDFORMAT
  1
GRIDFORMAT_BEGIN
 90
        0
 91
        1
 62
     0
 92
       -2
340
0
 93
        0
 40
0.045
309
GRIDFORMAT_END
 95
       16
302
GRIDFORMAT
  1
GRIDFORMAT_BEGIN
 90
        0
 91
        1
 62
     0
 92
       -2
340
0
 93
        0
 40
0.045
309
GRIDFORMAT_END
 95
       32
302
GRIDFORMAT
  1
GRIDFORMAT_BEGIN
 90
        0
 91
        1
 62
     0
 92
       -2
340
0
 93
        0
 40
0.045
309
GRIDFORMAT_END
309
TABLEFORMAT_END
  1
CELLSTYLE_BEGIN
 90
        2
 91
        1
300
_HEADER
309
CELLSTYLE_END
300
CELLSTYLE
  1
TABLEFORMAT_BEGIN
 90
        5
170
     1
 91
        0
 92
        0
 62
   257
 93
        1
300
CONTENTFORMAT
  1
CONTENTFORMAT_BEGIN
 90
        0
 91
        0
 92
      512
 93
        0
300

 40
0.0
140
1.0
 94
        2
 62
     0
340
11
144
0.18
309
CONTENTFORMAT_END
171
     0
 94
        6
 95
        1
302
GRIDFORMAT
  1
GRIDFORMAT_BEGIN
 90
        0
 91
        1
 62
     0
 92
       -2
340
0
 93
        0
 40
0.045
309
GRIDFORMAT_END
 95
        2
302
GRIDFORMAT
  1
GRIDFORMAT_BEGIN
 90
        0
 91
        1
 62
     0
 92
       -2
340
0
 93
        0
 40
0.045
309
GRIDFORMAT_END
 95
        4
302
GRIDFORMAT
  1
GRIDFORMAT_BEGIN
 90
        0
 91
        1
 62
     0
 92
       -2
340
0
 93
        0
 40
0.045
309
GRIDFORMAT_END
 95
        8
302
GRIDFORMAT
  1
GRIDFORMAT_BEGIN
 90
        0
 91
        1
 62
     0
 92
       -2
340
0
 93
        0
 40
0.045
309
GRIDFORMAT_END
 95
       16
302
GRIDFORMAT
  1
GRIDFORMAT_BEGIN
 90
        0
 91
        1
 62
     0
 92
       -2
340
0
 93
        0
 40
0.045
309
GRIDFORMAT_END
 95
       32
302
GRIDFORMAT
  1
GRIDFORMAT_BEGIN
 90
        0
 91
        1
 62
     0
 92
       -2
340
0
 93
        0
 40
0.045
309
GRIDFORMAT_END
309
TABLEFORMAT_END
  1
CELLSTYLE_BEGIN
 90
        3
 91
        2
300
_DATA
309
CELLSTYLE_END
  0
ENDSEC
  0
EOF
